  0
SECTION
  2
HEADER
  9
$ACADVER
  1
AC1027
  9
$ACADMAINTVER
 70
    81
  9
$DWGCODEPAGE
  3
ANSI_1250
  9
$LASTSAVEDBY
  1
MARCIN
  9
$REQUIREDVERSIONS
160
                 0
  9
$INSBASE
 10
0.0
 20
0.0
 30
0.0
  9
$EXTMIN
 10
2747.105384330681
 20
1323.801134433581
 30
-122.9719374614105
  9
$EXTMAX
 10
3715.241144228902
 20
2010.576384600804
 30
256.6872311509784
  9
$LIMMIN
 10
0.0
 20
0.0
  9
$LIMMAX
 10
420.0
 20
297.0
  9
$ORTHOMODE
 70
     0
  9
$REGENMODE
 70
     1
  9
$FILLMODE
 70
     1
  9
$QTEXTMODE
 70
     0
  9
$MIRRTEXT
 70
     0
  9
$LTSCALE
 40
1.0
  9
$ATTMODE
 70
     1
  9
$TEXTSIZE
 40
2.5
  9
$TRACEWID
 40
1.0
  9
$TEXTSTYLE
  7
Standard
  9
$CLAYER
  8
0
  9
$CELTYPE
  6
ByLayer
  9
$CECOLOR
 62
   256
  9
$CELTSCALE
 40
1.0
  9
$DISPSILH
 70
     0
  9
$DIMSCALE
 40
1.0
  9
$DIMASZ
 40
3.5
  9
$DIMEXO
 40
1.0
  9
$DIMDLI
 40
10.0
  9
$DIMRND
 40
0.0
  9
$DIMDLE
 40
0.0
  9
$DIMEXE
 40
1.0
  9
$DIMTP
 40
0.1
  9
$DIMTM
 40
0.1
  9
$DIMTXT
 40
3.5
  9
$DIMCEN
 40
0.0
  9
$DIMTSZ
 40
0.0
  9
$DIMTOL
 70
     0
  9
$DIMLIM
 70
     0
  9
$DIMTIH
 70
     0
  9
$DIMTOH
 70
     0
  9
$DIMSE1
 70
     0
  9
$DIMSE2
 70
     0
  9
$DIMTAD
 70
     1
  9
$DIMZIN
 70
     8
  9
$DIMBLK
  1

  9
$DIMASO
 70
     1
  9
$DIMSHO
 70
     1
  9
$DIMPOST
  1

  9
$DIMAPOST
  1
"
  9
$DIMALT
 70
     0
  9
$DIMALTD
 70
     2
  9
$DIMALTF
 40
0.0393701
  9
$DIMLFAC
 40
1.0
  9
$DIMTOFL
 70
     1
  9
$DIMTVP
 40
0.0
  9
$DIMTIX
 70
     0
  9
$DIMSOXD
 70
     0
  9
$DIMSAH
 70
     0
  9
$DIMBLK1
  1

  9
$DIMBLK2
  1

  9
$DIMSTYLE
  2
AM_ISO
  9
$DIMCLRD
 70
   256
  9
$DIMCLRE
 70
   256
  9
$DIMCLRT
 70
     2
  9
$DIMTFAC
 40
0.71
  9
$DIMGAP
 40
1.5
  9
$DIMJUST
 70
     0
  9
$DIMSD1
 70
     0
  9
$DIMSD2
 70
     0
  9
$DIMTOLJ
 70
     0
  9
$DIMTZIN
 70
     8
  9
$DIMALTZ
 70
     0
  9
$DIMALTTZ
 70
     0
  9
$DIMUPT
 70
     0
  9
$DIMDEC
 70
     0
  9
$DIMTDEC
 70
     3
  9
$DIMALTU
 70
     2
  9
$DIMALTTD
 70
     4
  9
$DIMTXSTY
  7
Standard
  9
$DIMAUNIT
 70
     0
  9
$DIMADEC
 70
     0
  9
$DIMALTRND
 40
0.0
  9
$DIMAZIN
 70
     2
  9
$DIMDSEP
 70
    46
  9
$DIMATFIT
 70
     3
  9
$DIMFRAC
 70
     0
  9
$DIMLDRBLK
  1

  9
$DIMLUNIT
 70
     2
  9
$DIMLWD
 70
    -1
  9
$DIMLWE
 70
    -1
  9
$DIMTMOVE
 70
     0
  9
$DIMFXL
 40
1.0
  9
$DIMFXLON
 70
     0
  9
$DIMJOGANG
 40
0.7853981633974483
  9
$DIMTFILL
 70
     0
  9
$DIMTFILLCLR
 70
     0
  9
$DIMARCSYM
 70
     1
  9
$DIMLTYPE
  6
ByBlock
  9
$DIMLTEX1
  6
ByBlock
  9
$DIMLTEX2
  6
ByBlock
  9
$DIMTXTDIRECTION
 70
     0
  9
$LUNITS
 70
     2
  9
$LUPREC
 70
     2
  9
$SKETCHINC
 40
1.0
  9
$FILLETRAD
 40
10.0
  9
$AUNITS
 70
     0
  9
$AUPREC
 70
     0
  9
$MENU
  1
.
  9
$ELEVATION
 40
0.0
  9
$PELEVATION
 40
0.0
  9
$THICKNESS
 40
0.0
  9
$LIMCHECK
 70
     0
  9
$CHAMFERA
 40
0.0
  9
$CHAMFERB
 40
0.0
  9
$CHAMFERC
 40
0.0
  9
$CHAMFERD
 40
0.0
  9
$SKPOLY
 70
     0
  9
$TDCREATE
 40
2457777.692282639
  9
$TDUCREATE
 40
2457777.650615972
  9
$TDUPDATE
 40
2457799.491004132
  9
$TDUUPDATE
 40
2457799.449337465
  9
$TDINDWG
 40
0.2082960417
  9
$TDUSRTIMER
 40
0.2082957639
  9
$USRTIMER
 70
     1
  9
$ANGBASE
 50
0.0
  9
$ANGDIR
 70
     0
  9
$PDMODE
 70
     0
  9
$PDSIZE
 40
0.0
  9
$PLINEWID
 40
0.0
  9
$SPLFRAME
 70
     0
  9
$SPLINETYPE
 70
     6
  9
$SPLINESEGS
 70
     8
  9
$HANDSEED
  5
C20
  9
$SURFTAB1
 70
     6
  9
$SURFTAB2
 70
     6
  9
$SURFTYPE
 70
     6
  9
$SURFU
 70
     6
  9
$SURFV
 70
     6
  9
$UCSBASE
  2

  9
$UCSNAME
  2

  9
$UCSORG
 10
0.0
 20
0.0
 30
0.0
  9
$UCSXDIR
 10
1.0
 20
0.0
 30
0.0
  9
$UCSYDIR
 10
0.0
 20
1.0
 30
0.0
  9
$UCSORTHOREF
  2

  9
$UCSORTHOVIEW
 70
     0
  9
$UCSORGTOP
 10
0.0
 20
0.0
 30
0.0
  9
$UCSORGBOTTOM
 10
0.0
 20
0.0
 30
0.0
  9
$UCSORGLEFT
 10
0.0
 20
0.0
 30
0.0
  9
$UCSORGRIGHT
 10
0.0
 20
0.0
 30
0.0
  9
$UCSORGFRONT
 10
0.0
 20
0.0
 30
0.0
  9
$UCSORGBACK
 10
0.0
 20
0.0
 30
0.0
  9
$PUCSBASE
  2

  9
$PUCSNAME
  2

  9
$PUCSORG
 10
0.0
 20
0.0
 30
0.0
  9
$PUCSXDIR
 10
1.0
 20
0.0
 30
0.0
  9
$PUCSYDIR
 10
0.0
 20
1.0
 30
0.0
  9
$PUCSORTHOREF
  2

  9
$PUCSORTHOVIEW
 70
     0
  9
$PUCSORGTOP
 10
0.0
 20
0.0
 30
0.0
  9
$PUCSORGBOTTOM
 10
0.0
 20
0.0
 30
0.0
  9
$PUCSORGLEFT
 10
0.0
 20
0.0
 30
0.0
  9
$PUCSORGRIGHT
 10
0.0
 20
0.0
 30
0.0
  9
$PUCSORGFRONT
 10
0.0
 20
0.0
 30
0.0
  9
$PUCSORGBACK
 10
0.0
 20
0.0
 30
0.0
  9
$USERI1
 70
     0
  9
$USERI2
 70
     0
  9
$USERI3
 70
     0
  9
$USERI4
 70
     0
  9
$USERI5
 70
     0
  9
$USERR1
 40
0.0
  9
$USERR2
 40
0.0
  9
$USERR3
 40
0.0
  9
$USERR4
 40
0.0
  9
$USERR5
 40
0.0
  9
$WORLDVIEW
 70
     1
  9
$SHADEDGE
 70
     3
  9
$SHADEDIF
 70
    70
  9
$TILEMODE
 70
     1
  9
$MAXACTVP
 70
    64
  9
$PINSBASE
 10
0.0
 20
0.0
 30
0.0
  9
$PLIMCHECK
 70
     0
  9
$PEXTMIN
 10
0.0
 20
0.0
 30
0.0
  9
$PEXTMAX
 10
0.0
 20
0.0
 30
0.0
  9
$PLIMMIN
 10
0.0
 20
0.0
  9
$PLIMMAX
 10
12.0
 20
9.0
  9
$UNITMODE
 70
     0
  9
$VISRETAIN
 70
     1
  9
$PLINEGEN
 70
     0
  9
$PSLTSCALE
 70
     1
  9
$TREEDEPTH
 70
  3020
  9
$CMLSTYLE
  2
Standard
  9
$CMLJUST
 70
     0
  9
$CMLSCALE
 40
20.0
  9
$PROXYGRAPHICS
 70
     1
  9
$MEASUREMENT
 70
     1
  9
$CELWEIGHT
370
    -1
  9
$ENDCAPS
280
     0
  9
$JOINSTYLE
280
     0
  9
$LWDISPLAY
290
     0
  9
$INSUNITS
 70
     4
  9
$HYPERLINKBASE
  1

  9
$STYLESHEET
  1

  9
$XEDIT
290
     1
  9
$CEPSNTYPE
380
     0
  9
$PSTYLEMODE
290
     1
  9
$FINGERPRINTGUID
  2
{85C9600D-F528-4743-A51C-37B2F0BC64C5}
  9
$VERSIONGUID
  2
{5C08D84D-6974-45A1-BF63-434D77DB1597}
  9
$EXTNAMES
290
     1
  9
$PSVPSCALE
 40
0.0
  9
$OLESTARTUP
290
     0
  9
$SORTENTS
280
   127
  9
$INDEXCTL
280
     0
  9
$HIDETEXT
280
     1
  9
$XCLIPFRAME
280
     2
  9
$HALOGAP
280
     0
  9
$OBSCOLOR
 70
   257
  9
$OBSLTYPE
280
     0
  9
$INTERSECTIONDISPLAY
280
     0
  9
$INTERSECTIONCOLOR
 70
   257
  9
$DIMASSOC
280
     2
  9
$PROJECTNAME
  1

  9
$CAMERADISPLAY
290
     0
  9
$LENSLENGTH
 40
50.0
  9
$CAMERAHEIGHT
 40
0.0
  9
$STEPSPERSEC
 40
2.0
  9
$STEPSIZE
 40
6.0
  9
$3DDWFPREC
 40
2.0
  9
$PSOLWIDTH
 40
5.0
  9
$PSOLHEIGHT
 40
80.0
  9
$LOFTANG1
 40
1.570796326794896
  9
$LOFTANG2
 40
1.570796326794896
  9
$LOFTMAG1
 40
0.0
  9
$LOFTMAG2
 40
0.0
  9
$LOFTPARAM
 70
     7
  9
$LOFTNORMALS
280
     1
  9
$LATITUDE
 40
37.795
  9
$LONGITUDE
 40
-122.394
  9
$NORTHDIRECTION
 40
0.0
  9
$TIMEZONE
 70
 -8000
  9
$LIGHTGLYPHDISPLAY
280
     1
  9
$TILEMODELIGHTSYNCH
280
     1
  9
$CMATERIAL
347
EC
  9
$SOLIDHIST
280
     0
  9
$SHOWHIST
280
     1
  9
$DWFFRAME
280
     2
  9
$DGNFRAME
280
     0
  9
$REALWORLDSCALE
290
     1
  9
$INTERFERECOLOR
 62
     1
  9
$INTERFEREOBJVS
345
F9
  9
$INTERFEREVPVS
346
F6
  9
$CSHADOW
280
     0
  9
$SHADOWPLANELOCATION
 40
0.0
  0
ENDSEC
  0
SECTION
  2
CLASSES
  0
CLASS
  1
ACDBDICTIONARYWDFLT
  2
AcDbDictionaryWithDefault
  3
ObjectDBX Classes
 90
        0
 91
        1
280
     0
281
     0
  0
CLASS
  1
DICTIONARYVAR
  2
AcDbDictionaryVar
  3
ObjectDBX Classes
 90
        0
 91
        9
280
     0
281
     0
  0
CLASS
  1
TABLESTYLE
  2
AcDbTableStyle
  3
ObjectDBX Classes
 90
     4095
 91
        1
280
     0
281
     0
  0
CLASS
  1
MATERIAL
  2
AcDbMaterial
  3
ObjectDBX Classes
 90
     1153
 91
        3
280
     0
281
     0
  0
CLASS
  1
VISUALSTYLE
  2
AcDbVisualStyle
  3
ObjectDBX Classes
 90
     4095
 91
       24
280
     0
281
     0
  0
CLASS
  1
SCALE
  2
AcDbScale
  3
ObjectDBX Classes
 90
     1153
 91
       17
280
     0
281
     0
  0
CLASS
  1
MLEADERSTYLE
  2
AcDbMLeaderStyle
  3
ACDB_MLEADERSTYLE_CLASS
 90
     4095
 91
        2
280
     0
281
     0
  0
CLASS
  1
CELLSTYLEMAP
  2
AcDbCellStyleMap
  3
ObjectDBX Classes
 90
     1152
 91
        4
280
     0
281
     0
  0
CLASS
  1
EXACXREFPANELOBJECT
  2
ExAcXREFPanelObject
  3
EXAC_ESW
 90
     1025
 91
        0
280
     0
281
     0
  0
CLASS
  1
NPOCOLLECTION
  2
AcDbImpNonPersistentObjectsCollection
  3
ObjectDBX Classes
 90
     1153
 91
        0
280
     0
281
     0
  0
CLASS
  1
LAYER_INDEX
  2
AcDbLayerIndex
  3
ObjectDBX Classes
 90
        0
 91
        0
280
     0
281
     0
  0
CLASS
  1
SPATIAL_INDEX
  2
AcDbSpatialIndex
  3
ObjectDBX Classes
 90
        0
 91
        0
280
     0
281
     0
  0
CLASS
  1
IDBUFFER
  2
AcDbIdBuffer
  3
ObjectDBX Classes
 90
        0
 91
        0
280
     0
281
     0
  0
CLASS
  1
ACDBSECTIONVIEWSTYLE
  2
AcDbSectionViewStyle
  3
ObjectDBX Classes
 90
     1025
 91
        3
280
     0
281
     0
  0
CLASS
  1
ACDBDETAILVIEWSTYLE
  2
AcDbDetailViewStyle
  3
ObjectDBX Classes
 90
     1025
 91
        3
280
     0
281
     0
  0
CLASS
  1
ACME_DOCUMENT
  2
AcMeDbDoc
  3
AcMeServices
 90
     1024
 91
        1
280
     0
281
     0
  0
CLASS
  1
AMGSETTINGSOBJ
  2
AmgSettingsObj
  3
"AcadM|Product Description: AutoCAD Mechanical|Company: Autodesk, Inc."
 90
     1024
 91
        2
280
     0
281
     0
  0
CLASS
  1
ACMESCOPE
  2
AcMeScope
  3
AcMeServices
 90
     1024
 91
        1
280
     0
281
     0
  0
CLASS
  1
ACMECOMMANDHISTORY
  2
AcMeCommandHistory
  3
AcMeServices
 90
     1024
 91
        1
280
     0
281
     0
  0
CLASS
  1
ACIMSYSVARMAN
  2
AcImSysVarManager
  3
AcMeServices
 90
     1024
 91
        3
280
     0
281
     0
  0
CLASS
  1
ACIMINTSYSVAR
  2
AcImIntSysVar
  3
AcMeServices
 90
     1024
 91
        2
280
     0
281
     0
  0
CLASS
  1
ACMESTATEMGR
  2
AcMeStateMgr
  3
AcMeServices
 90
     1024
 91
        1
280
     0
281
     0
  0
CLASS
  1
ACDBENTITYCACHE
  2
AcMeEntityCache
  3
AcMeServices
 90
     1024
 91
        1
280
     0
281
     0
  0
CLASS
  1
ACGREFMASTER
  2
AcGrefMaster
  3
AcAttribServices
 90
     1024
 91
        1
280
     0
281
     0
  0
CLASS
  1
ACME_DATABASE
  2
AcMeDbDatabase
  3
AcMeServices
 90
     1024
 91
        2
280
     0
281
     0
  0
CLASS
  1
ACRFINSADJUSTERMGR
  2
AcRfInsAdjusterMgr
  3
AcMeServices
 90
     1024
 91
        1
280
     0
281
     0
  0
CLASS
  1
ACGREFACADMASTER
  2
AcGrefacadMaster
  3
AcGrefServices
 90
     1024
 91
        1
280
     0
281
     0
  0
CLASS
  1
AMDTMENUSTATEMGR
  2
AmdtMenuStateMgr
  3
McadcomServices
 90
     1024
 91
        1
280
     0
281
     0
  0
CLASS
  1
AMDTMCOMMENUSTATE
  2
AmdtMcomMenuState
  3
McadcomServices
 90
     1024
 91
        1
280
     0
281
     0
  0
CLASS
  1
AMIMASTER
  2
AmiMaster
  3
AmiServices
 90
     1024
 91
        1
280
     0
281
     0
  0
CLASS
  1
MAPIAMMOUDLE
  2
MApiAmModule
  3
MApiAmServices
 90
     1024
 91
        1
280
     0
281
     0
  0
CLASS
  1
ACIMSTRSYSVAR
  2
AcImStrSysVar
  3
AcMeServices
 90
     1024
 91
        5
280
     0
281
     0
  0
CLASS
  1
AMDTAMMENUSTATE
  2
AmdtAmMenuState
  3
DesignerAssemblies
 90
     1024
 91
        1
280
     0
281
     0
  0
CLASS
  1
ACAMPROJECT
  2
AcAmProject
  3
DesignerAssemblies
 90
     1024
 91
        1
280
     0
281
     0
  0
CLASS
  1
ACAMGRCOMPDEF
  2
AcAmGrCompDef
  3
DesignerAssemblies
 90
     1024
 91
        1
280
     0
281
     0
  0
CLASS
  1
ACAMCOMPDEF
  2
AcAmCompDef
  3
DesignerAssemblies
 90
     1024
 91
        1
280
     0
281
     0
  0
CLASS
  1
ACAMCOMPDEFMGR
  2
AcAmCompDefMgr
  3
DesignerAssemblies
 90
     1024
 91
        1
280
     0
281
     0
  0
CLASS
  1
AMCONTEXTMGR
  2
AcAmContextMgr
  3
DesignerAssemblies
 90
     1024
 91
        1
280
     0
281
     0
  0
CLASS
  1
ACAMCONTEXTMODELER
  2
AcAmContextModeler
  3
DesignerAssemblies
 90
     1024
 91
        1
280
     0
281
     0
  0
CLASS
  1
ACMDATADICTIONARY
  2
AcmDataDictionary
  3
"AcmSymBB|Product Description: AutoCAD Mechanical|Company: Autodesk, Inc."
 90
     1024
 91
        1
280
     0
281
     0
  0
CLASS
  1
ACMSTANDARDISO
  2
AcmStandardISO
  3
"Amdt_StdImp|Product Description: AutoCAD Mechanical|Company: Autodesk, Inc."
 90
     1024
 91
        1
280
     0
281
     0
  0
CLASS
  1
AMDTEDGESTANDARDISO13715
  2
AmdtEdgeStdISO13715
  3
"Amdt_StdImp|Product Description: AutoCAD Mechanical|Company: Autodesk, Inc."
 90
     1024
 91
        1
280
     0
281
     0
  0
CLASS
  1
ACMSURFSTANDARDISO2002
  2
AcmSurfTextStdISO2002
  3
"Amdt_StdImp|Product Description: AutoCAD Mechanical|Company: Autodesk, Inc."
 90
     1024
 91
        1
280
     0
281
     0
  0
CLASS
  1
ACMFCFSTANDARDISO2012
  2
AcmFCFStdISO2012
  3
"Amdt_StdImp|Product Description: AutoCAD Mechanical|Company: Autodesk, Inc."
 90
     1024
 91
        1
280
     0
281
     0
  0
CLASS
  1
ACMWELDSTANDARDISO
  2
AcmWeldingStdISO
  3
"Amdt_StdImp|Product Description: AutoCAD Mechanical|Company: Autodesk, Inc."
 90
     1024
 91
        1
280
     0
281
     0
  0
CLASS
  1
ACMIDSTANDARDISO2012
  2
AcmIdStdISO2012
  3
"Amdt_StdImp|Product Description: AutoCAD Mechanical|Company: Autodesk, Inc."
 90
     1024
 91
        1
280
     0
281
     0
  0
CLASS
  1
ACMDATUMSTANDARDISO2012
  2
AcmDatumStdISO2012
  3
"Amdt_StdImp|Product Description: AutoCAD Mechanical|Company: Autodesk, Inc."
 90
     1024
 91
        1
280
     0
281
     0
  0
CLASS
  1
ACMBOMSTANDARDISO
  2
AcmBOMStdISO
  3
"Amdt_StdImp|Product Description: AutoCAD Mechanical|Company: Autodesk, Inc."
 90
     1024
 91
        1
280
     0
281
     0
  0
CLASS
  1
ACMDETAILSTANDARDISO
  2
AmdtDetailSymStdISO
  3
"Amdt_StdImp|Product Description: AutoCAD Mechanical|Company: Autodesk, Inc."
 90
     1024
 91
        1
280
     0
281
     0
  0
CLASS
  1
ACMSECTIONSTANDARDISO2001
  2
AmdtSectionSymStdISO2001
  3
"Amdt_StdImp|Product Description: AutoCAD Mechanical|Company: Autodesk, Inc."
 90
     1024
 91
        1
280
     0
281
     0
  0
CLASS
  1
ACMCENTERLINESTANDARDISO
  2
AmdtCenterLineStdISO
  3
"Amdt_StdImp|Product Description: AutoCAD Mechanical|Company: Autodesk, Inc."
 90
     1024
 91
        1
280
     0
281
     0
  0
CLASS
  1
ACMTHREADLINESTANDARDISO
  2
AmdtThreadLineStdISO
  3
"Amdt_StdImp|Product Description: AutoCAD Mechanical|Company: Autodesk, Inc."
 90
     1024
 91
        1
280
     0
281
     0
  0
CLASS
  1
ACMNOTESTANDARDISO
  2
AmdtNoteStdISO
  3
"Amdt_StdImp|Product Description: AutoCAD Mechanical|Company: Autodesk, Inc."
 90
     1024
 91
        1
280
     0
281
     0
  0
CLASS
  1
ACMTAPERSTANDARDISO
  2
AcmTaperStdISO
  3
"Amdt_StdImp|Product Description: AutoCAD Mechanical|Company: Autodesk, Inc."
 90
     1024
 91
        1
280
     0
281
     0
  0
CLASS
  1
ACMANOOTATIONVIEWSTANDARDISO
  2
AmdtAnViewStdISO
  3
"Amdt_StdImp|Product Description: AutoCAD Mechanical|Company: Autodesk, Inc."
 90
     1024
 91
        1
280
     0
281
     0
  0
CLASS
  1
ACAMGLAYSTD
  2
AcAmgLayStd
  3
"AmgLay|Product Description: AutoCAD Mechanical|Company: Autodesk, Inc."
 90
     1024
 91
        1
280
     0
281
     0
  0
CLASS
  1
ACAMGDIMSTD
  2
AcAmgDimStd
  3
"AmgDim|Product Description: AutoCAD Mechanical|Company: Autodesk, Inc."
 90
     1024
 91
        1
280
     0
281
     0
  0
CLASS
  1
AMGOBJPROPCFG
  2
AmgObjPropCfg
  3
"AmgLay|Product Description: AutoCAD Mechanical|Company: Autodesk, Inc."
 90
     1024
 91
        1
280
     0
281
     0
  0
CLASS
  1
ACAMGHOLECHARTSTDISO
  2
AcAmgHoleChartStdISO
  3
AmgDim|Product Description: AutoCAD Mechanical|Company: Autodesk, Inc.
 90
     1024
 91
        1
280
     0
281
     0
  0
CLASS
  1
ACAMGTITLESTD
  2
AcAmgTitleStd
  3
"AmgTitle|Product Description: AutoCAD Mechanical|Company: Autodesk, Inc."
 90
     1024
 91
        1
280
     0
281
     0
  0
CLASS
  1
ACMSECTIONSTANDARDCUSTOM
  2
AmdtSectionSymStdCustom
  3
"Amdt_StdImp|Product Description: AutoCAD Mechanical|Company: Autodesk, Inc."
 90
     1024
 91
        2
280
     0
281
     0
  0
CLASS
  1
ACMDETAILTANDARDCUSTOM
  2
AmdtDetailSymStdCustom
  3
"Amdt_StdImp|Product Description: AutoCAD Mechanical|Company: Autodesk, Inc."
 90
     1024
 91
        2
280
     0
281
     0
  0
CLASS
  1
FIELD
  2
AcDbField
  3
ObjectDBX Classes
 90
     1152
 91
        3
280
     0
281
     0
  0
CLASS
  1
FIELDLIST
  2
AcDbFieldList
  3
ObjectDBX Classes
 90
     1152
 91
        1
280
     0
281
     0
  0
CLASS
  1
AMDTNOTETEMPLATEDB
  2
AmdtNoteTemplateDB
  3
AcmSymBB|Product Description: AutoCAD Mechanical|Company: Autodesk, Inc.
 90
     1024
 91
        7
280
     0
281
     0
  0
CLASS
  1
ACAMGRCOMPDEFSET
  2
AcAmGrCompDefSet
  3
DesignerAssemblies
 90
     1024
 91
        1
280
     0
281
     0
  0
CLASS
  1
AMDTBROWSERDBTAB
  2
AmdtBrowserDbTab
  3
McadcomServices
 90
     1024
 91
        1
280
     0
281
     0
  0
CLASS
  1
CBROWSERAPPOBJECT
  2
CBrowserAppObject
  3
McadcomServices
 90
     1024
 91
        2
280
     0
281
     0
  0
CLASS
  1
DM_PLACEHOLDER
  2
AcDmSelsetPlaceholder
  3
McadcomServices
 90
     1024
 91
        1
280
     0
281
     0
  0
CLASS
  1
CAMSSTRUCTBTNSTATE
  2
StructBtnState
  3
DesignerAssemblies
 90
     1024
 91
        0
280
     0
281
     0
  0
CLASS
  1
ACAMGFILTERDAT
  2
AcAmgFilterDat
  3
"AcadM|Product Description: AutoCAD Mechanical|Company: Autodesk, Inc."
 90
     1024
 91
        0
280
     0
281
     0
  0
CLASS
  1
SORTENTSTABLE
  2
AcDbSortentsTable
  3
ObjectDBX Classes
 90
        0
 91
        2
280
     0
281
     0
  0
CLASS
  1
DIMASSOC
  2
AcDbDimAssoc
  3
"AcDbDimAssoc|Product Desc:     AcDim ARX App For Dimension|Company:          Autodesk, Inc.|WEB Address:      www.autodesk.com"
 90
        0
 91
        2
280
     0
281
     0
  0
ENDSEC
  0
SECTION
  2
TABLES
  0
TABLE
  2
VPORT
  5
8
330
0
100
AcDbSymbolTable
 70
     1
  0
VPORT
  5
EA
330
8
100
AcDbSymbolTableRecord
100
AcDbViewportTableRecord
  2
*Active
 70
     0
 10
0.0
 20
0.0
 11
1.0
 21
1.0
 12
3532.729381391091
 22
1651.050433108029
 13
0.0
 23
0.0
 14
10.0
 24
10.0
 15
10.0
 25
10.0
 16
0.0
 26
0.0
 36
1.0
 17
0.0
 27
0.0
 37
0.0
 40
1097.13956924611
 41
2.552380952380952
 42
50.0
 43
0.0
 44
0.0
 50
0.0
 51
0.0
 71
     0
 72
  1000
 73
     1
 74
     3
 75
     0
 76
     1
 77
     0
 78
     0
281
     0
 65
     0
110
0.0
120
0.0
130
0.0
111
1.0
121
0.0
131
0.0
112
0.0
122
1.0
132
0.0
 79
     0
146
0.0
348
F5
 60
     3
 61
     5
292
     1
282
     1
141
0.0
142
0.0
 63
   250
421
  3355443
1001
ACAD_NAV_VCDISPLAY
1070
     3
  0
ENDTAB
  0
TABLE
  2
LTYPE
  5
5
330
0
100
AcDbSymbolTable
 70
    16
  0
LTYPE
  5
14
330
5
100
AcDbSymbolTableRecord
100
AcDbLinetypeTableRecord
  2
ByBlock
 70
     0
  3

 72
    65
 73
     0
 40
0.0
  0
LTYPE
  5
15
330
5
100
AcDbSymbolTableRecord
100
AcDbLinetypeTableRecord
  2
ByLayer
 70
     0
  3

 72
    65
 73
     0
 40
0.0
  0
LTYPE
  5
16
330
5
100
AcDbSymbolTableRecord
100
AcDbLinetypeTableRecord
  2
Continuous
 70
     0
  3
Solid line
 72
    65
 73
     0
 40
0.0
  0
LTYPE
  5
25D
330
5
100
AcDbSymbolTableRecord
100
AcDbLinetypeTableRecord
  2
HIDDEN
 70
     0
  3
Hidden __ __ __ __ __ __ __ __ __ __ __ __ __ __
 72
    65
 73
     2
 40
9.525
 49
6.349999999999997
 74
     0
 49
-3.174999999999998
 74
     0
  0
LTYPE
  5
25E
330
5
100
AcDbSymbolTableRecord
100
AcDbLinetypeTableRecord
  2
PHANTOM2
 70
     0
  3
Phantom (.5x) ___ _ _ ___ _ _ ___ _ _ ___ _ _
 72
    65
 73
     6
 40
31.75
 49
15.875
 74
     0
 49
-3.174999999999998
 74
     0
 49
3.174999999999998
 74
     0
 49
-3.174999999999998
 74
     0
 49
3.174999999999998
 74
     0
 49
-3.174999999999998
 74
     0
  0
LTYPE
  5
25F
330
5
100
AcDbSymbolTableRecord
100
AcDbLinetypeTableRecord
  2
CENTER
 70
     0
  3
Center ____ _ ____ _ ____ _ ____ _ ____ _ ____
 72
    65
 73
     4
 40
50.8
 49
31.75
 74
     0
 49
-6.349999999999997
 74
     0
 49
6.349999999999997
 74
     0
 49
-6.349999999999997
 74
     0
  0
LTYPE
  5
294
330
5
100
AcDbSymbolTableRecord
100
AcDbLinetypeTableRecord
  2
AM_ISO02W050
 70
     0
  3
__ __ __ __ __ __ __ __ __ __ __ __ __ __ __
 72
    65
 73
     2
 40
7.5
 49
6.0
 74
     0
 49
-1.5
 74
     0
  0
LTYPE
  5
295
330
5
100
AcDbSymbolTableRecord
100
AcDbLinetypeTableRecord
  2
AM_ISO08W050
 70
     0
  3
____ . ____ . ____ . ____ . ____ . ____ . ____
 72
    65
 73
     4
 40
18.0
 49
12.0
 74
     0
 49
-1.5
 74
     0
 49
3.0
 74
     0
 49
-1.5
 74
     0
  0
LTYPE
  5
296
330
5
100
AcDbSymbolTableRecord
100
AcDbLinetypeTableRecord
  2
AM_ISO09W050
 70
     0
  3
_____ . . _____ . . _____ . . ____ .. ____
 72
    65
 73
     6
 40
22.5
 49
12.0
 74
     0
 49
-1.5
 74
     0
 49
3.0
 74
     0
 49
-1.5
 74
     0
 49
3.0
 74
     0
 49
-1.5
 74
     0
  0
LTYPE
  5
297
330
5
100
AcDbSymbolTableRecord
100
AcDbLinetypeTableRecord
  2
Amconstr
 70
     0
  3
_______________________
 72
    65
 73
     2
 40
9999.0
 49
9999.0
 74
     0
 49
0.0
 74
     0
  0
LTYPE
  5
298
330
5
100
AcDbSymbolTableRecord
100
AcDbLinetypeTableRecord
  2
AM_ISO08W050x2
 70
     0
  3
__ . __ . __ . __ . __ . __
 72
    65
 73
     4
 40
9.0
 49
6.0
 74
     0
 49
-0.75
 74
     0
 49
1.5
 74
     0
 49
-0.75
 74
     0
  0
LTYPE
  5
299
330
5
100
AcDbSymbolTableRecord
100
AcDbLinetypeTableRecord
  2
AM_ISO02W050x2
 70
     0
  3
 _ _ _ _ _ _ _ _ _ _ _ _
 72
    65
 73
     2
 40
3.75
 49
3.0
 74
     0
 49
-0.75
 74
     0
  0
LTYPE
  5
29C
330
5
100
AcDbSymbolTableRecord
100
AcDbLinetypeTableRecord
  2
Amzigzag
 70
     0
  3
/\/-/\/-/\/-/\/-/\/-/\/
 72
    65
 73
     2
 40
11.0001
 49
0.0001
 74
     4
 75
   136
340
29B
 46
0.04
 50
0.0
 44
0.0
 45
0.0
 49
-11.0
 74
     0
  0
LTYPE
  5
2AD
330
5
100
AcDbSymbolTableRecord
100
AcDbLinetypeTableRecord
  2
ACISOWELD
 70
     0
  3
_ _ _ _ _
 72
    65
 73
     2
 40
2.0
 49
2.0
 74
     0
 49
-1.0
 74
     0
  0
LTYPE
  5
2AE
330
5
100
AcDbSymbolTableRecord
100
AcDbLinetypeTableRecord
  2
ACISOTGL
 70
     0
  3
_ _ _ _ _
 72
    65
 73
     2
 40
3.0
 49
2.0
 74
     0
 49
-1.0
 74
     0
  0
LTYPE
  5
2AF
330
5
100
AcDbSymbolTableRecord
100
AcDbLinetypeTableRecord
  2
ACISOTGB
 70
     0
  3
__ . . __ . .
 72
    65
 73
     6
 40
9.0
 49
4.0
 74
     0
 49
-1.0
 74
     0
 49
1.0
 74
     0
 49
-1.0
 74
     0
 49
1.0
 74
     0
 49
-1.0
 74
     0
  0
ENDTAB
  0
TABLE
  2
LAYER
  5
2
102
{ACAD_XDICTIONARY
360
1FF
102
}
330
0
100
AcDbSymbolTable
 70
     6
  0
LAYER
  5
10
102
{ACAD_XDICTIONARY
360
13C
102
}
330
2
100
AcDbSymbolTableRecord
100
AcDbLayerTableRecord
  2
0
 70
     0
 62
     7
  6
Continuous
370
    -3
390
F
347
EE
348
0
  0
LAYER
  5
3C2
330
2
100
AcDbSymbolTableRecord
100
AcDbLayerTableRecord
  2
AM_5
 70
     0
 62
     3
  6
Continuous
370
    25
390
F
347
EE
348
0
1001
AcAecLayerStandard
1000

1000

  0
LAYER
  5
3C9
330
2
100
AcDbSymbolTableRecord
100
AcDbLayerTableRecord
  2
Defpoints
 70
     0
 62
     7
  6
Continuous
290
     0
370
    -3
390
F
347
EE
348
0
  0
LAYER
  5
765
330
2
100
AcDbSymbolTableRecord
100
AcDbLayerTableRecord
  2
AM_8
 70
     0
 62
     1
  6
Continuous
370
    25
390
F
347
EE
348
0
1001
AcAecLayerStandard
1000

1000

  0
LAYER
  5
773
330
2
100
AcDbSymbolTableRecord
100
AcDbLayerTableRecord
  2
Model
 70
     0
 62
     7
  6
Continuous
370
    30
390
F
347
EE
348
0
1001
AcAecLayerStandard
1000

1000

1001
ACCMTRANSPARENCY
1071
        0
  0
LAYER
  5
774
330
2
100
AcDbSymbolTableRecord
100
AcDbLayerTableRecord
  2
Wymiary
 70
     0
 62
     7
  6
Continuous
370
    -3
390
F
347
EE
348
0
1001
AcAecLayerStandard
1000

1000

1001
ACCMTRANSPARENCY
1071
        0
  0
ENDTAB
  0
TABLE
  2
STYLE
  5
3
330
0
100
AcDbSymbolTable
 70
     5
  0
STYLE
  5
11
330
3
100
AcDbSymbolTableRecord
100
AcDbTextStyleTableRecord
  2
Standard
 70
     0
 40
0.0
 41
1.0
 50
0.0
 71
     0
 42
2.5
  3
ISOCP.SHX
  4

  0
STYLE
  5
132
330
3
100
AcDbSymbolTableRecord
100
AcDbTextStyleTableRecord
  2
Annotative
 70
     0
 40
0.0
 41
1.0
 50
0.0
 71
     0
 42
2.5
  3
arial.ttf
  4

1001
AcadAnnotative
1000
AnnotativeData
1002
{
1070
     1
1070
     1
1002
}
1001
ACAD
1000
Arial
1071
       34
  0
STYLE
  5
29B
330
3
100
AcDbSymbolTableRecord
100
AcDbTextStyleTableRecord
  2

 70
     1
 40
0.0
 41
1.0
 50
0.0
 71
     0
 42
2.5
  3
genltshp.shx
  4

  0
STYLE
  5
2AB
330
3
100
AcDbSymbolTableRecord
100
AcDbTextStyleTableRecord
  2
ACISOTS
 70
     0
 40
0.0
 41
1.0
 50
0.0
 71
     0
 42
2.5
  3
geniso.shx
  4

  0
STYLE
  5
2AC
330
3
100
AcDbSymbolTableRecord
100
AcDbTextStyleTableRecord
  2
ACISOGDT
 70
     0
 40
0.0
 41
1.0
 50
0.0
 71
     0
 42
2.5
  3
amgdt.shx
  4

  0
ENDTAB
  0
TABLE
  2
VIEW
  5
6
330
0
100
AcDbSymbolTable
 70
     1
  0
ENDTAB
  0
TABLE
  2
UCS
  5
7
330
0
100
AcDbSymbolTable
 70
     0
  0
ENDTAB
  0
TABLE
  2
APPID
  5
9
330
0
100
AcDbSymbolTable
 70
    25
  0
APPID
  5
12
330
9
100
AcDbSymbolTableRecord
100
AcDbRegAppTableRecord
  2
ACAD
 70
     0
  0
APPID
  5
9E
330
9
100
AcDbSymbolTableRecord
100
AcDbRegAppTableRecord
  2
ACAD_PSEXT
 70
     0
  0
APPID
  5
133
330
9
100
AcDbSymbolTableRecord
100
AcDbRegAppTableRecord
  2
AcadAnnoPO
 70
     0
  0
APPID
  5
134
330
9
100
AcDbSymbolTableRecord
100
AcDbRegAppTableRecord
  2
AcadAnnotative
 70
     0
  0
APPID
  5
135
330
9
100
AcDbSymbolTableRecord
100
AcDbRegAppTableRecord
  2
ACAD_DSTYLE_DIMJAG
 70
     0
  0
APPID
  5
136
330
9
100
AcDbSymbolTableRecord
100
AcDbRegAppTableRecord
  2
ACAD_DSTYLE_DIMTALN
 70
     0
  0
APPID
  5
165
330
9
100
AcDbSymbolTableRecord
100
AcDbRegAppTableRecord
  2
ACAD_MLEADERVER
 70
     0
  0
APPID
  5
217
330
9
100
AcDbSymbolTableRecord
100
AcDbRegAppTableRecord
  2
ACAD_NAV_VCDISPLAY
 70
     0
  0
APPID
  5
256
330
9
100
AcDbSymbolTableRecord
100
AcDbRegAppTableRecord
  2
MCAD_NO_VIS
 70
     0
  0
APPID
  5
257
330
9
100
AcDbSymbolTableRecord
100
AcDbRegAppTableRecord
  2
ACAD_TEMP_GRAPHIC
 70
     0
  0
APPID
  5
264
330
9
100
AcDbSymbolTableRecord
100
AcDbRegAppTableRecord
  2
ACATTRIBSERVICES
 70
     0
  0
APPID
  5
27C
330
9
100
AcDbSymbolTableRecord
100
AcDbRegAppTableRecord
  2
DESIGNERASSEMBLIES
 70
     0
  0
APPID
  5
292
330
9
100
AcDbSymbolTableRecord
100
AcDbRegAppTableRecord
  2
ACAD_DSTYLE_DIMBREAK
 70
     0
  0
APPID
  5
2E5
330
9
100
AcDbSymbolTableRecord
100
AcDbRegAppTableRecord
  2
GENIUS_GENREC_14
 70
     0
  0
APPID
  5
2E6
330
9
100
AcDbSymbolTableRecord
100
AcDbRegAppTableRecord
  2
GENIUS_GENOBJ-N-REC_13
 70
     0
  0
APPID
  5
2E7
330
9
100
AcDbSymbolTableRecord
100
AcDbRegAppTableRecord
  2
GENIUS_GENODEF_13
 70
     0
  0
APPID
  5
302
330
9
100
AcDbSymbolTableRecord
100
AcDbRegAppTableRecord
  2
ACAD_EXEMPT_FROM_CAD_STANDARDS
 70
     0
  0
APPID
  5
33B
330
9
100
AcDbSymbolTableRecord
100
AcDbRegAppTableRecord
  2
GENIUS_GENOBJ-N-FIL_13
 70
     0
  0
APPID
  5
3C3
330
9
100
AcDbSymbolTableRecord
100
AcDbRegAppTableRecord
  2
AcAecLayerStandard
 70
     0
  0
APPID
  5
3E1
330
9
100
AcDbSymbolTableRecord
100
AcDbRegAppTableRecord
  2
GENIUS_GENDTOL_13
 70
     0
  0
APPID
  5
3E2
330
9
100
AcDbSymbolTableRecord
100
AcDbRegAppTableRecord
  2
ACAD_DSTYLE_DIMINSPECT
 70
     0
  0
APPID
  5
3F5
330
9
100
AcDbSymbolTableRecord
100
AcDbRegAppTableRecord
  2
AcadAnnoMonitorAlertIconDisabled
 70
     0
  0
APPID
  5
766
330
9
100
AcDbSymbolTableRecord
100
AcDbRegAppTableRecord
  2
GENIUS_GENOBJ-N-HTC_13
 70
     0
  0
APPID
  5
767
330
9
100
AcDbSymbolTableRecord
100
AcDbRegAppTableRecord
  2
GENIUS_GENHATCH_13
 70
     0
  0
APPID
  5
776
330
9
100
AcDbSymbolTableRecord
100
AcDbRegAppTableRecord
  2
ACCMTRANSPARENCY
 70
     0
  0
ENDTAB
  0
TABLE
  2
DIMSTYLE
  5
A
330
0
100
AcDbSymbolTable
 70
    13
100
AcDbDimStyleTable
 71
     3
340
291
340
27
340
137
  0
DIMSTYLE
105
1B0
330
A
100
AcDbSymbolTableRecord
100
AcDbDimStyleTableRecord
  2
Standard
 70
     0
340
11
  0
DIMSTYLE
105
137
330
A
100
AcDbSymbolTableRecord
100
AcDbDimStyleTableRecord
  2
Annotative
 70
     0
 40
0.0
 41
2.5
 42
0.625
 43
3.75
 44
1.25
 73
     0
 74
     0
 77
     1
 78
     8
140
2.5
141
2.5
143
0.03937007874016
147
0.625
171
     3
172
     1
271
     2
272
     2
274
     3
278
    44
283
     0
284
     8
340
11
1001
AcadAnnotative
1000
AnnotativeData
1002
{
1070
     1
1070
     1
1002
}
1001
ACAD_DSTYLE_DIMJAG
1070
   388
1040
1.5
1001
ACAD_DSTYLE_DIMTALN
1070
   392
1070
     0
  0
DIMSTYLE
105
27
330
A
100
AcDbSymbolTableRecord
100
AcDbDimStyleTableRecord
  2
ISO-25
 70
     0
 41
2.5
 42
0.625
 43
3.75
 44
1.25
 73
     0
 74
     0
 77
     1
 78
     8
140
2.5
141
2.5
143
0.03937007874016
147
0.625
171
     3
172
     1
271
     2
272
     2
274
     3
278
    44
283
     0
284
     8
340
11
  0
DIMSTYLE
105
291
102
{ACAD_REACTORS
330
BC8
102
}
330
A
100
AcDbSymbolTableRecord
100
AcDbDimStyleTableRecord
  2
AM_ISO
 70
     0
  4
"
 41
3.5
 42
1.0
 43
10.0
 44
1.0
 47
0.1
 48
0.1
 73
     0
 74
     0
 77
     1
 78
     8
 79
     2
 90
     1
140
3.5
141
0.0
143
0.0393701
146
0.71
147
1.5
172
     1
176
   256
177
   256
178
     2
271
     2
272
     3
274
     4
283
     0
284
     8
340
11
345
14
346
14
347
14
371
    -1
372
    -1
1001
ACAD_DSTYLE_DIMJAG
1070
   388
1040
1.5
1001
ACAD_DSTYLE_DIMBREAK
1070
   391
1040
3.75
  0
DIMSTYLE
105
29D
330
A
100
AcDbSymbolTableRecord
100
AcDbDimStyleTableRecord
  2
AM_ISO$3
 70
     0
  4
"
 41
3.5
 42
1.0
 43
10.0
 44
1.0
 47
0.1
 48
0.1
 73
     0
 77
     1
 78
     8
 79
     2
 90
     1
140
3.5
141
0.0
143
0.0393701
146
0.71
147
1.5
176
   256
177
   256
178
     2
271
     2
272
     3
274
     4
283
     0
284
     8
288
     1
289
     0
340
11
345
14
346
14
347
14
371
    -1
372
    -1
1001
ACAD_DSTYLE_DIMBREAK
1070
   391
1040
3.75
1001
ACAD_DSTYLE_DIMJAG
1070
   388
1040
1.5
  0
DIMSTYLE
105
29E
330
A
100
AcDbSymbolTableRecord
100
AcDbDimStyleTableRecord
  2
AM_ISO$4
 70
     0
  4
"
 41
3.5
 42
1.0
 43
10.0
 44
1.0
 47
0.1
 48
0.1
 73
     0
 77
     1
 78
     8
 79
     2
 90
     1
140
3.5
141
0.0
143
0.0393701
146
0.71
147
1.5
176
   256
177
   256
178
     2
271
     2
272
     3
274
     4
283
     0
284
     8
288
     1
289
     0
340
11
345
14
346
14
347
14
371
    -1
372
    -1
1001
ACAD_DSTYLE_DIMBREAK
1070
   391
1040
3.75
1001
ACAD_DSTYLE_DIMJAG
1070
   388
1040
1.5
  0
DIMSTYLE
105
29F
330
A
100
AcDbSymbolTableRecord
100
AcDbDimStyleTableRecord
  2
AM_ISO$6
 70
     0
  4
"
 41
3.5
 42
1.0
 43
10.0
 44
1.0
 47
0.1
 48
0.1
 73
     0
 74
     0
 78
     8
 79
     2
 90
     1
140
3.5
141
0.0
143
0.0393701
146
0.71
147
1.5
172
     1
176
   256
177
   256
178
     2
271
     2
272
     3
274
     4
283
     0
284
     8
340
11
345
14
346
14
347
14
371
    -1
372
    -1
1001
ACAD_DSTYLE_DIMBREAK
1070
   391
1040
3.75
1001
ACAD_DSTYLE_DIMJAG
1070
   388
1040
1.5
  0
DIMSTYLE
105
2A0
330
A
100
AcDbSymbolTableRecord
100
AcDbDimStyleTableRecord
  2
AM_ISO$7
 70
     0
  4
"
 41
3.5
 42
1.0
 43
10.0
 44
1.0
 47
0.1
 48
0.1
 73
     0
 74
     0
 77
     1
 78
     8
 79
     2
 90
     1
140
3.5
141
0.0
143
0.0393701
146
0.71
147
1.5
172
     1
176
   256
177
   256
178
     2
271
     2
272
     3
274
     4
283
     0
284
     8
340
11
345
14
346
14
347
14
371
    -1
372
    -1
1001
ACAD_DSTYLE_DIMBREAK
1070
   391
1040
3.75
1001
ACAD_DSTYLE_DIMJAG
1070
   388
1040
1.5
  0
DIMSTYLE
105
2A1
330
A
100
AcDbSymbolTableRecord
100
AcDbDimStyleTableRecord
  2
AM_ISO$SF
 70
     0
  4
"
 41
3.5
 42
1.0
 43
10.0
 44
1.0
 47
0.1
 48
0.1
 73
     0
 74
     0
 75
     1
 76
     1
 77
     1
 78
     8
 79
     2
 90
     1
140
3.5
141
0.0
143
0.0393701
146
0.71
147
1.5
172
     1
176
   256
177
   256
178
     2
271
     2
272
     3
274
     4
283
     0
284
     8
340
11
345
14
346
14
347
14
371
    -1
372
    -1
1001
ACAD_DSTYLE_DIMBREAK
1070
   391
1040
3.75
1001
ACAD_DSTYLE_DIMJAG
1070
   388
1040
1.5
  0
DIMSTYLE
105
2A6
330
A
100
AcDbSymbolTableRecord
100
AcDbDimStyleTableRecord
  2
AM_ISO$SH
 70
     0
  4
"
 41
3.5
 42
1.0
 43
10.0
 44
1.0
 47
0.1
 48
0.1
 73
     0
 74
     0
 75
     1
 76
     1
 77
     1
 78
     8
 79
     2
 90
     1
140
3.5
141
0.0
143
0.0393701
144
2.0
146
0.71
147
1.5
172
     1
173
     1
176
   256
177
   256
178
     2
271
     2
272
     3
274
     4
283
     0
284
     8
340
11
343
2A2
345
14
346
14
347
14
371
    -1
372
    -1
1001
ACAD_DSTYLE_DIMBREAK
1070
   391
1040
3.75
1001
ACAD_DSTYLE_DIMJAG
1070
   388
1040
1.5
  0
DIMSTYLE
105
3C6
330
A
100
AcDbSymbolTableRecord
100
AcDbDimStyleTableRecord
  2
AM_ISO$0
 70
     0
  4
"
 41
3.5
 42
1.0
 43
10.0
 44
1.0
 47
0.1
 48
0.1
 73
     0
 74
     0
 77
     1
 78
     8
 79
     2
 90
     1
140
3.5
141
0.0
143
0.0393701
146
0.71
147
1.5
172
     1
176
   256
177
   256
178
     2
271
     2
272
     3
274
     4
283
     0
284
     8
340
11
345
14
346
14
347
14
371
    -1
372
    -1
1001
ACAD_DSTYLE_DIMBREAK
1070
   391
1040
3.75
1001
ACAD_DSTYLE_DIMJAG
1070
   388
1040
1.5
  0
DIMSTYLE
105
775
330
A
100
AcDbSymbolTableRecord
100
AcDbDimStyleTableRecord
  2
ISO-15
 70
     0
 41
15.0
 42
0.625
 43
3.75
 44
10.0
 49
50.0
 73
     0
 74
     0
 77
     1
 78
     8
140
15.0
141
2.5
143
0.03937007874016
147
10.0
171
     3
172
     1
271
     2
272
     2
274
     3
278
    44
283
     0
284
     8
290
     1
340
11
1001
ACAD_DSTYLE_DIMBREAK
1070
   391
1040
3.75
1001
ACAD_DSTYLE_DIMJAG
1070
   388
1040
1.5
1001
ACAD_DSTYLE_DIMTALN
1070
   392
1070
     0
  0
ENDTAB
  0
TABLE
  2
BLOCK_RECORD
  5
1
330
0
100
AcDbSymbolTable
 70
     8
  0
BLOCK_RECORD
  5
1F
102
{ACAD_XDICTIONARY
360
1CE
102
}
330
1
100
AcDbSymbolTableRecord
100
AcDbBlockTableRecord
  2
*Model_Space
340
22
 70
     0
280
     1
281
     0
  0
BLOCK_RECORD
  5
D2
330
1
100
AcDbSymbolTableRecord
100
AcDbBlockTableRecord
  2
*Paper_Space
340
D3
 70
     0
280
     1
281
     0
  0
BLOCK_RECORD
  5
D6
330
1
100
AcDbSymbolTableRecord
100
AcDbBlockTableRecord
  2
*Paper_Space0
340
D7
 70
     0
280
     1
281
     0
  0
BLOCK_RECORD
  5
2A2
330
1
100
AcDbSymbolTableRecord
100
AcDbBlockTableRecord
  2
GENAXEH
340
0
 70
     0
280
     1
281
     0
  0
BLOCK_RECORD
  5
6B2
330
1
100
AcDbSymbolTableRecord
100
AcDbBlockTableRecord
  2
*D2
340
0
 70
     0
280
     1
281
     0
  0
BLOCK_RECORD
  5
6BE
330
1
100
AcDbSymbolTableRecord
100
AcDbBlockTableRecord
  2
*D3
340
0
 70
     0
280
     1
281
     0
  0
BLOCK_RECORD
  5
6D3
330
1
100
AcDbSymbolTableRecord
100
AcDbBlockTableRecord
  2
*D4
340
0
 70
     0
280
     1
281
     0
  0
ENDTAB
  0
ENDSEC
  0
SECTION
  2
BLOCKS
  0
BLOCK
  5
20
330
1F
100
AcDbEntity
  8
0
100
AcDbBlockBegin
  2
*Model_Space
 70
     0
 10
0.0
 20
0.0
 30
0.0
  3
*Model_Space
  1

  0
ENDBLK
  5
21
330
1F
100
AcDbEntity
  8
0
100
AcDbBlockEnd
  0
BLOCK
  5
D4
330
D2
100
AcDbEntity
 67
     1
  8
0
100
AcDbBlockBegin
  2
*Paper_Space
 70
     0
 10
0.0
 20
0.0
 30
0.0
  3
*Paper_Space
  1

  0
ENDBLK
  5
D5
330
D2
100
AcDbEntity
 67
     1
  8
0
100
AcDbBlockEnd
  0
BLOCK
  5
D8
330
D6
100
AcDbEntity
 67
     1
  8
0
100
AcDbBlockBegin
  2
*Paper_Space0
 70
     0
 10
0.0
 20
0.0
 30
0.0
  3
*Paper_Space0
  1

  0
ENDBLK
  5
D9
330
D6
100
AcDbEntity
 67
     1
  8
0
100
AcDbBlockEnd
  0
BLOCK
  5
2A4
330
2A2
100
AcDbEntity
  8
0
100
AcDbBlockBegin
  2
GENAXEH
 70
     0
 10
0.0
 20
0.0
 30
0.0
  3
GENAXEH
  1

  0
LINE
  5
2A3
330
2A2
100
AcDbEntity
  8
0
100
AcDbLine
 10
-1.0
 20
0.0
 30
0.0
 11
1.0
 21
0.0
 31
0.0
  0
ENDBLK
  5
2A5
330
2A2
100
AcDbEntity
  8
0
100
AcDbBlockEnd
  0
BLOCK
  5
6B3
330
6B2
100
AcDbEntity
  8
0
100
AcDbBlockBegin
  2
*D2
 70
     1
 10
0.0
 20
0.0
 30
0.0
  3
*D2
  1

  0
LINE
  5
6CA
330
6B2
100
AcDbEntity
  8
AM_5
  6
ByBlock
440
 16777216
100
AcDbLine
 10
3154.194064650079
 20
1542.608072390934
 30
0.0
 11
3154.194064650079
 21
1510.870317361767
 31
0.0
  0
LINE
  5
6CB
330
6B2
100
AcDbEntity
  8
AM_5
  6
ByBlock
440
 16777216
100
AcDbLine
 10
3277.009502520253
 20
1544.520447724588
 30
0.0
 11
3277.009502520253
 21
1510.870317361767
 31
0.0
  0
LINE
  5
6CC
330
6B2
100
AcDbEntity
  8
AM_5
  6
ByBlock
440
 16777216
100
AcDbLine
 10
3157.694064650078
 20
1511.870317361767
 30
0.0
 11
3273.509502520254
 21
1511.870317361767
 31
0.0
  0
SOLID
  5
6CD
330
6B2
100
AcDbEntity
  8
AM_5
440
 16777216
100
AcDbTrace
 10
3157.694064650078
 20
1512.453650695101
 30
0.0
 11
3157.694064650078
 21
1511.286984028434
 31
0.0
 12
3154.194064650079
 22
1511.870317361767
 32
0.0
 13
3154.194064650079
 23
1511.870317361767
 33
0.0
  0
SOLID
  5
6CE
330
6B2
100
AcDbEntity
  8
AM_5
440
 16777216
100
AcDbTrace
 10
3273.509502520254
 20
1512.453650695101
 30
0.0
 11
3273.509502520254
 21
1511.286984028434
 31
0.0
 12
3277.009502520253
 22
1511.870317361767
 32
0.0
 13
3277.009502520253
 23
1511.870317361767
 33
0.0
  0
MTEXT
  5
6CF
330
6B2
100
AcDbEntity
  8
AM_5
 62
     2
440
 16777216
100
AcDbMText
 10
3215.601783585166
 20
1518.371301613736
 30
0.0
 40
10.0
 41
0.0
 46
0.0
 71
     5
 72
     1
  1
123
 73
     1
 44
1.0
  0
POINT
  5
6D0
330
6B2
100
AcDbEntity
  8
Defpoints
 62
     0
440
 16777216
100
AcDbPoint
 10
3154.194064650079
 20
1543.608072390934
 30
0.0
  0
POINT
  5
6D1
330
6B2
100
AcDbEntity
  8
Defpoints
 62
     0
440
 16777216
100
AcDbPoint
 10
3277.009502520253
 20
1545.520447724588
 30
0.0
  0
POINT
  5
6D2
330
6B2
100
AcDbEntity
  8
Defpoints
 62
     0
440
 16777216
100
AcDbPoint
 10
3277.009502520253
 20
1511.870317361767
 30
0.0
  0
ENDBLK
  5
6B4
330
6B2
100
AcDbEntity
  8
0
100
AcDbBlockEnd
  0
BLOCK
  5
6BF
330
6BE
100
AcDbEntity
  8
0
100
AcDbBlockBegin
  2
*D3
 70
     1
 10
0.0
 20
0.0
 30
0.0
  3
*D3
  1

  0
LINE
  5
6C1
330
6BE
100
AcDbEntity
  8
AM_5
  6
ByBlock
440
 16777216
100
AcDbLine
 10
2932.522202079841
 20
1576.35878354497
 30
0.0
 11
2932.522202079841
 21
1510.870317361769
 31
0.0
  0
LINE
  5
6C2
330
6BE
100
AcDbEntity
  8
AM_5
  6
ByBlock
440
 16777216
100
AcDbLine
 10
3055.202646747659
 20
1554.305825471349
 30
0.0
 11
3055.202646747659
 21
1510.870317361769
 31
0.0
  0
LINE
  5
6C3
330
6BE
100
AcDbEntity
  8
AM_5
  6
ByBlock
440
 16777216
100
AcDbLine
 10
2936.022202079841
 20
1511.870317361769
 30
0.0
 11
3051.70264674766
 21
1511.870317361769
 31
0.0
  0
SOLID
  5
6C4
330
6BE
100
AcDbEntity
  8
AM_5
440
 16777216
100
AcDbTrace
 10
2936.022202079841
 20
1512.453650695102
 30
0.0
 11
2936.022202079841
 21
1511.286984028436
 31
0.0
 12
2932.522202079841
 22
1511.870317361769
 32
0.0
 13
2932.522202079841
 23
1511.870317361769
 33
0.0
  0
SOLID
  5
6C5
330
6BE
100
AcDbEntity
  8
AM_5
440
 16777216
100
AcDbTrace
 10
3051.70264674766
 20
1512.453650695102
 30
0.0
 11
3051.70264674766
 21
1511.286984028436
 31
0.0
 12
3055.202646747659
 22
1511.870317361769
 32
0.0
 13
3055.202646747659
 23
1511.870317361769
 33
0.0
  0
MTEXT
  5
6C6
330
6BE
100
AcDbEntity
  8
AM_5
 62
     2
440
 16777216
100
AcDbMText
 10
2993.86242441375
 20
1518.371301613737
 30
0.0
 40
10.0
 41
0.0
 46
0.0
 71
     5
 72
     1
  1
123
 73
     1
 44
1.0
  0
POINT
  5
6C7
330
6BE
100
AcDbEntity
  8
Defpoints
 62
     0
440
 16777216
100
AcDbPoint
 10
2932.522202079841
 20
1577.35878354497
 30
0.0
  0
POINT
  5
6C8
330
6BE
100
AcDbEntity
  8
Defpoints
 62
     0
440
 16777216
100
AcDbPoint
 10
3055.202646747659
 20
1555.305825471349
 30
0.0
  0
POINT
  5
6C9
330
6BE
100
AcDbEntity
  8
Defpoints
 62
     0
440
 16777216
100
AcDbPoint
 10
3055.202646747659
 20
1511.870317361769
 30
0.0
  0
ENDBLK
  5
6C0
330
6BE
100
AcDbEntity
  8
0
100
AcDbBlockEnd
  0
BLOCK
  5
6D4
330
6D3
100
AcDbEntity
  8
0
100
AcDbBlockBegin
  2
*D4
 70
     1
 10
0.0
 20
0.0
 30
0.0
  3
*D4
  1

  0
LINE
  5
6D6
330
6D3
100
AcDbEntity
  8
AM_5
  6
ByBlock
440
 16777216
100
AcDbLine
 10
3268.009502520254
 20
1744.520447724588
 30
0.0
 11
3308.643324533667
 21
1744.520447724588
 31
0.0
  0
LINE
  5
6D7
330
6D3
100
AcDbEntity
  8
AM_5
  6
ByBlock
440
 16777216
100
AcDbLine
 10
3268.009502520254
 20
1535.520447724588
 30
0.0
 11
3308.643324533667
 21
1535.520447724588
 31
0.0
  0
LINE
  5
6D8
330
6D3
100
AcDbEntity
  8
AM_5
  6
ByBlock
440
 16777216
100
AcDbLine
 10
3307.643324533669
 20
1741.020447724588
 30
0.0
 11
3307.643324533669
 21
1539.020447724588
 31
0.0
  0
SOLID
  5
6D9
330
6D3
100
AcDbEntity
  8
AM_5
440
 16777216
100
AcDbTrace
 10
3307.059991200333
 20
1741.020447724588
 30
0.0
 11
3308.226657867
 21
1741.020447724588
 31
0.0
 12
3307.643324533669
 22
1744.520447724588
 32
0.0
 13
3307.643324533669
 23
1744.520447724588
 33
0.0
  0
SOLID
  5
6DA
330
6D3
100
AcDbEntity
  8
AM_5
440
 16777216
100
AcDbTrace
 10
3307.059991200333
 20
1539.020447724588
 30
0.0
 11
3308.226657867
 21
1539.020447724588
 31
0.0
 12
3307.643324533669
 22
1535.520447724588
 32
0.0
 13
3307.643324533669
 23
1535.520447724588
 33
0.0
  0
MTEXT
  5
6DB
330
6D3
100
AcDbEntity
  8
AM_5
 62
     2
440
 16777216
100
AcDbMText
 10
3301.142340281698
 20
1640.020447724589
 30
0.0
 40
10.0
 41
0.0
 46
0.0
 71
     5
 72
     1
  1
209
 11
0.0000000000000001
 21
1.0
 31
0.0
 73
     1
 44
1.0
  0
POINT
  5
6DC
330
6D3
100
AcDbEntity
  8
Defpoints
 62
     0
440
 16777216
100
AcDbPoint
 10
3267.009502520252
 20
1744.520447724588
 30
0.0
  0
POINT
  5
6DD
330
6D3
100
AcDbEntity
  8
Defpoints
 62
     0
440
 16777216
100
AcDbPoint
 10
3267.009502520252
 20
1535.520447724588
 30
0.0
  0
POINT
  5
6DE
330
6D3
100
AcDbEntity
  8
Defpoints
 62
     0
440
 16777216
100
AcDbPoint
 10
3307.643324533669
 20
1535.520447724588
 30
0.0
  0
ENDBLK
  5
6D5
330
6D3
100
AcDbEntity
  8
0
100
AcDbBlockEnd
  0
ENDSEC
  0
SECTION
  2
ENTITIES
  0
MTEXT
  5
2FE
330
1F
100
AcDbEntity
  8
0
100
AcDbMText
 10
2993.296455606818
 20
1453.184440868665
 30
0.0
 40
20.0
 41
625.3385414942475
 46
0.0
 71
     1
 72
     5
  1
Nazwa produktu:Dozownik na myd{\fArial|b0|i0|c238|p34;ł}o pionowy 1L
 73
     1
 44
1.0
1001
ACAD
1000
ACAD_MTEXT_COLUMN_INFO_BEGIN
1070
    75
1070
     2
1070
    79
1070
     0
1070
    76
1070
     1
1070
    78
1070
     0
1070
    48
1040
625.3385414942475
1070
    49
1040
12.5
1070
    50
1070
     1
1040
0.0
1000
ACAD_MTEXT_COLUMN_INFO_END
  0
MTEXT
  5
2FF
330
1F
100
AcDbEntity
  8
0
100
AcDbMText
 10
2992.105229386678
 20
1379.413925134307
 30
0.0
 40
20.0
 41
488.6573107911899
 46
0.0
 71
     1
 72
     5
  1
Kod produktu:DISH5V
 73
     1
 44
1.0
1001
ACAD
1000
ACAD_MTEXT_COLUMN_INFO_BEGIN
1070
    75
1070
     2
1070
    79
1070
     0
1070
    76
1070
     1
1070
    78
1070
     0
1070
    48
1040
488.6573107911899
1070
    49
1040
12.5
1070
    50
1070
     1
1040
0.0
1000
ACAD_MTEXT_COLUMN_INFO_END
  0
LWPOLYLINE
  5
300
330
1F
100
AcDbEntity
  8
0
100
AcDbPolyline
 90
        4
 70
     1
 43
0.0
 10
2753.183759135569
 20
1323.801134433581
 10
3715.241144228902
 20
1324.065474891756
 10
3709.162769424015
 20
2010.576384600804
 10
2747.105384330681
 20
2010.312044142629
1001
GENIUS_GENREC_14
1002
{
1000
PYDIR
1011
2753.183759135569
1021
1858.085916959001
1031
0.0
1002
}
1002
{
1000
PXDIR
1011
3431.080993136625
1021
1323.801134433581
1031
0.0
1002
}
1002
{
1000
PORI
1011
2753.183759135569
1021
1323.801134433581
1031
0.0
1002
}
1002
{
1000
PINS
1011
2753.183759135569
1021
1323.801134433581
1031
0.0
1002
}
1002
{
1000
PINS2
1011
3431.080993136625
1021
1858.085916959001
1031
0.0
1002
}
1002
{
1000
C
1070
     1
1002
}
1001
GENIUS_GENOBJ-N-REC_13
1002
{
1000
OWNER
1000
GEN
1002
}
1001
GENIUS_GENODEF_13
1002
{
1000
HIER
1070
     0
1002
}
1002
{
1000
MANEDIT
1070
     0
1002
}
1002
{
1000
NOSEL
1070
     0
1002
}
1002
{
1000
BEHIND
1070
     0
1002
}
1002
{
1000
OTHER
1070
     0
1002
}
1002
{
1000
REACTOR
1002
}
  0
OLE2FRAME
  5
301
330
1F
100
AcDbEntity
  8
0
100
AcDbOle2Frame
 70
     2
 73
     1
 90
        0
1001
ACAD
1000
OLEBEGIN
1070
    70
1070
     1
1070
    71
1070
     1
1070
    40
1040
0.0
1070
    41
1040
95.30687720922287
1070
    42
1040
95.57899855102276
1070
    72
1070
     0
1070
     3
1000

1070
    90
1071
        0
1070
    43
1040
0.0
1070
     4
1000

1070
    91
1071
        0
1070
    44
1040
0.0
1000
OLEEND
  0
ELLIPSE
  5
97A
330
1F
100
AcDbEntity
  8
Model
100
AcDbEllipse
 10
3528.073349290661
 20
1648.157439674751
 30
0.0000000000009095
 11
2.5
 21
-0.0000000000000005
 31
0.0000000000000003
210
-0.0000000000000001
220
0.0000000000000001
230
1.0
 40
0.577350269189626
 41
3.141592653589535
 42
5.991617325126377
  0
ELLIPSE
  5
97B
330
1F
100
AcDbEntity
  8
Model
100
AcDbEllipse
 10
3516.79799415958
 20
1665.055939038924
 30
0.0
 11
4.266111727027115
 21
7.389122261976377
 31
-0.0000000000000009
210
-0.0000000000000001
220
0.0000000000000002
230
1.0
 40
0.5773502691896255
 41
5.674532797756056
 42
8.639379797371876
  0
ELLIPSE
  5
97C
330
1F
100
AcDbEntity
  8
Model
100
AcDbEllipse
 10
3516.79799415958
 20
1665.055939038924
 30
0.0
 11
4.266111727027115
 21
7.389122261976377
 31
-0.0000000000000009
210
-0.0000000000000001
220
0.0000000000000002
230
1.0
 40
0.5773502691896255
 41
2.356194490192291
 42
3.75024516301369
  0
ELLIPSE
  5
97D
330
1F
100
AcDbEntity
  8
Model
100
AcDbEllipse
 10
3516.79799415958
 20
1665.055939038924
 30
0.0
 11
-3.749999999999996
 21
-6.495190528383284
 31
-0.0000000000000004
210
-0.0000000000000002
220
0.0
230
1.0
 40
0.577350269189626
 41
3.92699081698724
 42
6.650393327737273
  0
ELLIPSE
  5
97E
330
1F
100
AcDbEntity
  8
Model
100
AcDbEllipse
 10
3516.79799415958
 20
1665.055939038924
 30
0.0
 11
-3.749999999999996
 21
-6.495190528383284
 31
-0.0000000000000004
210
-0.0000000000000002
220
0.0
230
1.0
 40
0.577350269189626
 41
2.774384633032376
 42
3.92699081698724
  0
ELLIPSE
  5
97F
330
1F
100
AcDbEntity
  8
Model
100
AcDbEllipse
 10
3516.467958790697
 20
1665.246485047992
 30
0.0000000000006821
 11
4.515558016491468
 21
7.821175909088164
 31
0.0
210
-0.0000000000000002
220
0.0000000000000001
230
1.0
 40
0.5773502691896259
 41
2.356194490192395
 42
3.188750582578546
  0
ELLIPSE
  5
980
330
1F
100
AcDbEntity
  8
Model
100
AcDbEllipse
 10
3516.467958790697
 20
1665.246485047992
 30
0.0000000000006821
 11
4.515558016491468
 21
7.821175909088164
 31
0.0
210
-0.0000000000000002
220
0.0000000000000001
230
1.0
 40
0.5773502691896259
 41
6.236027378190835
 42
8.639379797371981
  0
ELLIPSE
  5
981
330
1F
100
AcDbEntity
  8
Model
100
AcDbEllipse
 10
3507.36598986592
 20
1670.501509256867
 30
0.0000000000011369
 11
-4.944628946415376
 21
-8.564348559767202
 31
-0.0000000000000011
210
-0.0000000000000002
220
0.0
230
1.0
 40
0.577350269189626
 41
3.094434724601211
 42
5.49778714378209
  0
ELLIPSE
  5
982
330
1F
100
AcDbEntity
  8
Model
100
AcDbEllipse
 10
3507.36598986592
 20
1670.501509256867
 30
0.0000000000011369
 11
-4.944628946415376
 21
-8.564348559767202
 31
-0.0000000000000011
210
-0.0000000000000002
220
0.0
230
1.0
 40
0.577350269189626
 41
5.49778714378209
 42
6.330343236167938
  0
ELLIPSE
  5
983
330
1F
100
AcDbEntity
  8
Model
100
AcDbEllipse
 10
3505.01418769496
 20
1671.859322873351
 30
-0.0000000000004547
 11
4.999999999999998
 21
8.660254037844389
 31
0.0000000000000006
210
-0.0000000000000002
220
0.0
230
1.0
 40
0.5773502691896258
 41
2.356194490192434
 42
3.141592653589921
  0
ELLIPSE
  5
984
330
1F
100
AcDbEntity
  8
Model
100
AcDbEllipse
 10
3505.01418769496
 20
1671.859322873351
 30
-0.0000000000004547
 11
4.999999999999998
 21
8.660254037844389
 31
0.0000000000000006
210
-0.0000000000000002
220
0.0
230
1.0
 40
0.5773502691896258
 41
-0.0000000000000326
 42
2.356194490192434
  0
ELLIPSE
  5
985
330
1F
100
AcDbEntity
  8
Model
100
AcDbEllipse
 10
3532.354343345684
 20
1656.074476648719
 30
0.0000000000011369
 11
-4.499999999999997
 21
-7.794228634059948
 31
0.0000000000000005
210
-0.0000000000000001
220
0.0000000000000001
230
1.0
 40
0.5773502691896261
 41
0.0
 42
6.283185307179585
  0
ELLIPSE
  5
986
330
1F
100
AcDbEntity
  8
Model
100
AcDbEllipse
 10
3532.000789955092
 20
1656.278600793951
 30
0.0000000000002274
 11
-4.749999999999998
 21
-8.227241335952165
 31
-0.0000000000000016
210
-0.0000000000000002
220
-0.0000000000000001
230
1.0
 40
0.5773502691896262
 41
3.141592653589792
 42
6.283185307179585
  0
ELLIPSE
  5
987
330
1F
100
AcDbEntity
  8
Model
100
AcDbEllipse
 10
3531.293683173904
 20
1656.686849084415
 30
0.0000000000013642
 11
4.749999999999998
 21
8.227241335952165
 31
0.0000000000000016
210
-0.0000000000000002
220
-0.0000000000000001
230
1.0
 40
0.5773502691896262
 41
-0.0000000000001693
 42
3.141592653589792
  0
ELLIPSE
  5
988
330
1F
100
AcDbEntity
  8
Model
100
AcDbEllipse
 10
3501.171118133013
 20
1696.940024385432
 30
0.0000000000002274
 11
5.500000000000338
 21
9.526279441628886
 31
-0.0000000000000012
210
-0.0000000000000001
220
0.0000000000000002
230
1.0
 40
0.5773502691896099
 41
5.339360476463672
 42
7.068583470577157
  0
ELLIPSE
  5
989
330
1F
100
AcDbEntity
  8
Model
100
AcDbEllipse
 10
3501.171118133013
 20
1696.940024385432
 30
0.0000000000002274
 11
5.500000000000338
 21
9.526279441628886
 31
-0.0000000000000012
210
-0.0000000000000001
220
0.0000000000000002
230
1.0
 40
0.5773502691896099
 41
0.7853981633975726
 42
4.085417484305426
  0
ELLIPSE
  5
98A
330
1F
100
AcDbEntity
  8
Model
100
AcDbEllipse
 10
3501.171118133013
 20
1696.940024385432
 30
0.0000000000002274
 11
5.000000000000328
 21
8.660254037844467
 31
-0.0000000000000006
210
-0.0000000000000001
220
0.0000000000000001
230
1.0
 40
0.5773502691896095
 41
5.702476747675346
 42
7.068583470577076
  0
ELLIPSE
  5
98B
330
1F
100
AcDbEntity
  8
Model
100
AcDbEllipse
 10
3501.171118133013
 20
1696.940024385432
 30
0.0000000000002274
 11
5.000000000000328
 21
8.660254037844467
 31
-0.0000000000000006
210
-0.0000000000000001
220
0.0000000000000001
230
1.0
 40
0.5773502691896095
 41
0.7853981633974905
 42
3.72230121309377
  0
ELLIPSE
  5
98C
330
1F
100
AcDbEntity
  8
Model
100
AcDbEllipse
 10
3501.878224914199
 20
1696.531776094968
 30
0.0
 11
4.500000000000298
 21
7.794228634060036
 31
-0.000000000000001
210
-0.0000000000000001
220
0.0000000000000002
230
1.0
 40
0.5773502691896098
 41
-0.0000000000001372
 42
0.7853981633974897
  0
ELLIPSE
  5
98D
330
1F
100
AcDbEntity
  8
Model
100
AcDbEllipse
 10
3501.878224914199
 20
1696.531776094968
 30
0.0
 11
4.500000000000298
 21
7.794228634060036
 31
-0.000000000000001
210
-0.0000000000000001
220
0.0000000000000002
230
1.0
 40
0.5773502691896098
 41
0.7853981633974897
 42
3.141592653589833
  0
ELLIPSE
  5
98E
330
1F
100
AcDbEntity
  8
Model
100
AcDbEllipse
 10
3501.923338158264
 20
1696.505729951364
 30
-0.0000000000002274
 11
4.500000000000298
 21
7.794228634060036
 31
-0.000000000000001
210
-0.0000000000000001
220
0.0000000000000002
230
1.0
 40
0.5773502691896098
 41
-0.0000000000001372
 42
0.7853981633974897
  0
ELLIPSE
  5
98F
330
1F
100
AcDbEntity
  8
Model
100
AcDbEllipse
 10
3501.923338158264
 20
1696.505729951364
 30
-0.0000000000002274
 11
4.500000000000298
 21
7.794228634060036
 31
-0.000000000000001
210
-0.0000000000000001
220
0.0000000000000002
230
1.0
 40
0.5773502691896098
 41
0.7853981633974897
 42
3.141592653589833
  0
ELLIPSE
  5
990
330
1F
100
AcDbEntity
  8
Model
100
AcDbEllipse
 10
3503.277448179172
 20
1695.72393416628
 30
0.0
 11
3.788432012157545
 21
6.561756726076895
 31
-0.0000000000000004
210
-0.0000000000000002
220
0.0000000000000002
230
1.0
 40
0.5773502691896099
 41
0.0
 42
6.283185307179585
  0
ELLIPSE
  5
991
330
1F
100
AcDbEntity
  8
Model
100
AcDbEllipse
 10
3499.756904570638
 20
1697.75652096636
 30
0.0
 11
6.500000000000389
 21
11.25833024919774
 31
-0.0000000000000014
210
-0.0000000000000001
220
0.0000000000000002
230
1.0
 40
0.5773502691896099
 41
0.0000000000000174
 42
0.7853981633974207
  0
ELLIPSE
  5
992
330
1F
100
AcDbEntity
  8
Model
100
AcDbEllipse
 10
3499.756904570638
 20
1697.75652096636
 30
0.0
 11
6.500000000000389
 21
11.25833024919774
 31
-0.0000000000000014
210
-0.0000000000000001
220
0.0000000000000002
230
1.0
 40
0.5773502691896099
 41
0.7853981633974207
 42
3.141592653589933
  0
LINE
  5
993
330
1F
100
AcDbEntity
  8
Model
100
AcDbLine
 10
3493.463470380425
 20
1858.157380428332
 30
0.0
 11
3436.8949278855
 21
1825.497517191223
 31
0.0000000000002274
210
-0.0000000000000001
220
0.8164965809277259
230
0.5773502691896259
  0
LINE
  5
994
330
1F
100
AcDbEntity
  8
Model
100
AcDbLine
 10
3493.463470380425
 20
1858.157380428332
 30
0.0
 11
3498.413217848729
 21
1855.299642395084
 31
0.0000000000004547
210
-0.0000000000000001
220
0.8164965809277259
230
0.5773502691896259
  0
ELLIPSE
  5
995
330
1F
100
AcDbEntity
  8
Model
100
AcDbEllipse
 10
3493.463470380425
 20
1841.827448809777
 30
0.0000000000004547
 11
9.999999999999996
 21
17.32050807568878
 31
0.0
210
-0.0000000000000001
220
0.0000000000000001
230
1.0
 40
0.5773502691896259
 41
-0.0000000000000643
 42
0.7853981633974483
  0
ELLIPSE
  5
997
330
1F
100
AcDbEntity
  8
Model
100
AcDbEllipse
 10
3523.140363304676
 20
1681.806585028896
 30
0.0000000000004547
 11
2.889740287338181
 21
-4.080367761824363
 31
0.0000000000000014
210
-0.0000000000000002
220
0.0000000000000002
230
1.0
 40
0.6328481945781085
 41
-0.0000000000004649
 42
0.7292643476343486
  0
ELLIPSE
  5
998
330
1F
100
AcDbEntity
  8
Model
100
AcDbEllipse
 10
3466.571820809751
 20
1649.146721791787
 30
0.0000000000002274
 11
2.129298939727017
 21
-4.523945846855086
 31
0.0000000000000006
210
-0.0000000000000001
220
0.0000000000000001
230
1.0
 40
0.515916494489078
 41
0.0000000000004527
 42
0.8312245893322202
  0
SPLINE
  5
999
330
1F
100
AcDbEntity
  8
Model
100
AcDbSpline
210
0.000000000000502
220
0.0000000000003055
230
1.0
 70
     8
 71
     3
 72
    12
 73
     8
 74
     0
 42
0.000000001
 43
0.0000000001
 40
7.892960179225076
 40
7.892960179225076
 40
7.892960179225076
 40
7.892960179225076
 40
9.704492483000603
 40
9.704492483000603
 40
12.8187022561587
 40
12.8187022561587
 40
15.75737223592844
 40
15.75737223592844
 40
15.75737223592844
 40
15.75737223592844
 10
3458.517451265464
 20
1644.64164054405
 30
0.0
 10
3458.030129465078
 20
1644.923114783461
 30
-0.0000000000002274
 10
3457.585924652367
 20
1645.273496801715
 30
0.0
 10
3456.517042955274
 20
1646.400270775889
 30
0.0000000000006821
 10
3455.992896100642
 20
1647.301729011802
 30
0.0000000000004547
 10
3455.321285923446
 20
1649.337983738529
 30
-0.0000000000002274
 10
3455.154308686496
 20
1650.456435589509
 30
0.0000000000004547
 10
3455.154308686496
 20
1651.656142584988
 30
-0.0000000000004547
  0
ELLIPSE
  5
99A
330
1F
100
AcDbEntity
  8
Model
100
AcDbEllipse
 10
3529.400520711082
 20
1694.522213083693
 30
0.0000000000011369
 11
4.999999999999912
 21
-0.0000000000000003
 31
0.0000000000000014
210
-0.0000000000000003
220
0.0000000000000001
230
1.0
 40
0.5773502691896259
 41
5.624709922680369
 42
6.283185307179714
  0
LINE
  5
99B
330
1F
100
AcDbEntity
  8
Model
100
AcDbLine
 10
3455.154308686496
 20
1786.378078438062
 30
-0.0000000000002274
 11
3455.154308686496
 21
1651.656142584988
 31
-0.0000000000004547
210
-0.0000000000000001
220
0.8164965809277259
230
0.5773502691896259
  0
ELLIPSE
  5
99C
330
1F
100
AcDbEntity
  8
Model
100
AcDbEllipse
 10
3458.689842592427
 20
1653.697384037306
 30
0.0000000000006821
 11
-5.0
 21
0.000000000000001
 31
-0.0000000000000006
210
-0.0000000000000001
220
0.0000000000000001
230
1.0
 40
0.577350269189626
 41
0.7853981633973575
 42
2.229271711294011
  0
ELLIPSE
  5
99D
330
1F
100
AcDbEntity
  8
Model
100
AcDbEllipse
 10
3529.400520711082
 20
1829.244148936767
 30
0.0000000000009095
 11
4.999999999999912
 21
-0.0000000000000003
 31
0.0000000000000014
210
-0.0000000000000003
220
0.0000000000000001
230
1.0
 40
0.5773502691896259
 41
5.624709922680471
 42
6.283185307179714
  0
ELLIPSE
  5
99E
330
1F
100
AcDbEntity
  8
Model
100
AcDbEllipse
 10
3458.689842592427
 20
1788.419319890381
 30
0.0000000000004547
 11
-5.0
 21
0.000000000000001
 31
-0.0000000000000006
210
-0.0000000000000001
220
0.0000000000000001
230
1.0
 40
0.577350269189626
 41
0.7853981633973575
 42
2.229271711294654
  0
ELLIPSE
  5
99F
330
1F
100
AcDbEntity
  8
Model
100
AcDbEllipse
 10
3523.140363304676
 20
1832.858452500526
 30
0.0000000000011369
 11
2.889740287338197
 21
-4.080367761824351
 31
0.0000000000000011
210
-0.0000000000000002
220
0.0000000000000001
230
1.0
 40
0.6328481945781058
 41
0.7292643476342552
 42
2.300060674429143
  0
ELLIPSE
  5
9A0
330
1F
100
AcDbEntity
  8
Model
100
AcDbEllipse
 10
3466.571820809753
 20
1800.198589263416
 30
0.0000000000004547
 11
-2.129298939727
 21
4.523945846855096
 31
-0.0000000000000008
210
-0.0000000000000002
220
0.0000000000000001
230
1.0
 40
0.515916494489075
 41
3.972817242922019
 42
5.543613569716922
  0
ELLIPSE
  5
9A1
330
1F
100
AcDbEntity
  8
Model
100
AcDbEllipse
 10
3436.8949278855
 20
1809.167585572668
 30
-0.0000000000009095
 11
-9.999999999999996
 21
-17.32050807568878
 31
0.0
210
-0.0000000000000001
220
0.0000000000000001
230
1.0
 40
0.5773502691896259
 41
3.926990816987241
 42
5.497787143782113
  0
LINE
  5
9A2
330
1F
100
AcDbEntity
  8
Model
100
AcDbLine
 10
3441.844675353806
 20
1822.639779157977
 30
0.0000000000002274
 11
3436.8949278855
 21
1825.497517191223
 31
0.0000000000002274
210
-0.0000000000000001
220
0.8164965809277259
230
0.5773502691896259
  0
LINE
  5
9A3
330
1F
100
AcDbEntity
  8
Model
100
AcDbLine
 10
3422.752792261771
 20
1801.002619763391
 30
0.0000000000002274
 11
3422.752792261768
 21
1666.280683910316
 31
0.0000000000002274
210
-0.0000000000000001
220
0.8164965809277259
230
0.5773502691896259
  0
LINE
  5
9A4
330
1F
100
AcDbEntity
  8
Model
100
AcDbLine
 10
3422.752792261771
 20
1801.002619763391
 30
0.0000000000002274
 11
3427.702539730075
 21
1798.144881730144
 31
0.0000000000002274
210
-0.0000000000000001
220
0.8164965809277259
230
0.5773502691896259
  0
ELLIPSE
  5
9A5
330
1F
100
AcDbEntity
  8
Model
100
AcDbEllipse
 10
3436.8949278855
 20
1674.445649719593
 30
0.0
 11
-9.999999999999996
 21
-17.32050807568878
 31
0.0
210
-0.0000000000000001
220
0.0000000000000001
230
1.0
 40
0.5773502691896259
 41
5.497787143782184
 42
6.283185307179602
  0
LINE
  5
9A6
330
1F
100
AcDbEntity
  8
Model
100
AcDbLine
 10
3427.702539730075
 20
1663.422945877069
 30
0.0
 11
3422.752792261768
 21
1666.280683910316
 31
0.0000000000002274
210
-0.0000000000000001
220
0.8164965809277259
230
0.5773502691896259
  0
ELLIPSE
  5
9A7
330
1F
100
AcDbEntity
  8
Model
100
AcDbEllipse
 10
3498.413217848732
 20
1838.96971077653
 30
0.0000000000002274
 11
9.99999999999988
 21
17.32050807568884
 31
0.0
210
-0.0000000000000001
220
0.0000000000000001
230
1.0
 40
0.577350269189626
 41
0.0000000000000041
 42
0.7853981633974855
  0
ELLIPSE
  5
9A8
330
1F
100
AcDbEntity
  8
Model
100
AcDbEllipse
 10
3441.844675353805
 20
1671.587911686346
 30
0.0000000000013642
 11
-9.99999999999988
 21
-17.32050807568884
 31
0.0000000000000011
210
-0.0000000000000001
220
0.0000000000000001
230
1.0
 40
0.577350269189626
 41
5.497787143782083
 42
6.283185307179588
  0
LINE
  5
9A9
330
1F
100
AcDbEntity
  8
Model
100
AcDbLine
 10
3498.413217848729
 20
1855.299642395084
 30
0.0000000000004547
 11
3441.844675353806
 21
1822.639779157977
 31
0.0000000000002274
210
-0.0000000000000001
220
0.8164965809277259
230
0.5773502691896259
  0
ELLIPSE
  5
9AA
330
1F
100
AcDbEntity
  8
Model
100
AcDbEllipse
 10
3498.413217848729
 20
1853.666649233229
 30
0.0000000000004547
 11
1.0
 21
-1.732050807568876
 31
0.0000000000000004
210
-0.0000000000000002
220
0.0000000000000001
230
1.0
 40
0.577350269189626
 41
0.7853981633967662
 42
2.356194490193253
  0
LINE
  5
9AB
330
1F
100
AcDbEntity
  8
Model
100
AcDbLine
 10
3427.702539730075
 20
1798.144881730144
 30
0.0000000000002274
 11
3427.702539730075
 21
1663.422945877069
 31
0.0
210
-0.0000000000000001
220
0.8164965809277259
230
0.5773502691896259
  0
ELLIPSE
  5
9AC
330
1F
100
AcDbEntity
  8
Model
100
AcDbEllipse
 10
3429.116753292447
 20
1664.239442457996
 30
0.0
 11
-2.0
 21
0.0000000000000001
 31
-0.0000000000000003
210
-0.0000000000000002
220
0.0000000000000001
230
1.0
 40
0.577350269189626
 41
0.7853981633972209
 42
2.356194490192571
  0
ELLIPSE
  5
9AD
330
1F
100
AcDbEntity
  8
Model
100
AcDbEllipse
 10
3441.844675353805
 20
1806.309847539421
 30
0.0000000000004547
 11
-10.00000000000011
 21
-17.3205080756887
 31
0.0
210
-0.0000000000000001
220
0.0000000000000001
230
1.0
 40
0.577350269189626
 41
3.926990816987248
 42
5.497787143782099
  0
ELLIPSE
  5
9AE
330
1F
100
AcDbEntity
  8
Model
100
AcDbEllipse
 10
3441.844675353805
 20
1821.00678599612
 30
0.0000000000006821
 11
1.0
 21
-1.732050807568876
 31
0.0000000000000004
210
-0.0000000000000002
220
0.0000000000000001
230
1.0
 40
0.577350269189626
 41
0.785398163397903
 42
2.356194490192344
  0
ELLIPSE
  5
9AF
330
1F
100
AcDbEntity
  8
Model
100
AcDbEllipse
 10
3429.116753292448
 20
1798.961378311071
 30
0.0000000000004547
 11
-2.0
 21
0.0000000000000001
 31
-0.0000000000000003
210
-0.0000000000000002
220
0.0000000000000001
230
1.0
 40
0.577350269189626
 41
0.7853981633967662
 42
2.356194490192571
  0
LINE
  5
9B0
330
1F
100
AcDbEntity
  8
Model
100
AcDbLine
 10
3443.258888916179
 20
1820.190289415193
 30
0.0
 11
3499.827431411103
 21
1852.850152652301
 31
0.0000000000002274
210
-0.0000000000000001
220
0.8164965809277259
230
0.5773502691896259
  0
ELLIPSE
  5
9B1
330
1F
100
AcDbEntity
  8
Model
100
AcDbEllipse
 10
3499.827431411103
 20
1838.153214195602
 30
0.0000000000011369
 11
8.999999999999889
 21
15.58845726811996
 31
0.0
210
-0.0000000000000002
220
0.0000000000000001
230
1.0
 40
0.577350269189626
 41
5.697499763722379
 42
7.068583470577026
  0
ELLIPSE
  5
9B2
330
1F
100
AcDbEntity
  8
Model
100
AcDbEllipse
 10
3443.258888916179
 20
1670.771415105418
 30
-0.0000000000002274
 11
-8.999999999999889
 21
-15.58845726811996
 31
-0.000000000000001
210
-0.0000000000000002
220
0.0000000000000001
230
1.0
 40
0.577350269189626
 41
5.497787143782129
 42
6.868870850636757
  0
LINE
  5
9B3
330
1F
100
AcDbEntity
  8
Model
100
AcDbLine
 10
3430.530966854821
 20
1663.422945877069
 30
0.0
 11
3430.530966854821
 21
1798.144881730144
 31
0.0000000000002274
210
-0.0000000000000001
220
0.8164965809277259
230
0.5773502691896259
  0
ELLIPSE
  5
9B4
330
1F
100
AcDbEntity
  8
Model
100
AcDbEllipse
 10
3443.258888916179
 20
1805.493350958493
 30
0.0000000000004547
 11
9.000000000000104
 21
15.58845726811983
 31
0.0
210
-0.0000000000000002
220
0.0000000000000001
230
1.0
 40
0.577350269189626
 41
0.7853981633974564
 42
2.356194490192351
  0
SPLINE
  5
9B5
330
1F
100
AcDbEntity
  8
Model
100
AcDbSpline
210
0.0000000000000621
220
-0.000000000000065
230
1.0
 70
     8
 71
     3
 72
    16
 73
    12
 74
     0
 42
0.000000001
 43
0.0000000001
 40
0.0
 40
0.0
 40
0.0
 40
0.0
 40
3.318095753297203
 40
3.318095753297203
 40
6.581226467333607
 40
6.581226467333607
 40
9.5263566159946
 40
9.5263566159946
 40
12.73537081078735
 40
12.73537081078735
 40
15.75736548256709
 40
15.75736548256709
 40
15.75736548256709
 40
15.75736548256709
 10
3455.154308686496
 20
1786.378078438062
 30
-0.0000000000002274
 10
3455.154308686494
 20
1787.73268535694
 30
0.0000000000004547
 10
3455.367605027309
 20
1789.190707278901
 30
0.0000000000009095
 10
3456.18842850019
 20
1792.129229799614
 30
0.0000000000006821
 10
3456.789038762327
 20
1793.608419096568
 30
0.0000000000009095
 10
3458.235760696234
 20
1796.318578121062
 30
0.0000000000002274
 10
3459.051641080264
 20
1797.559310700296
 30
-0.0000000000009095
 10
3460.952087781003
 20
1799.951201001428
 30
0.0000000000002274
 10
3462.053764541205
 20
1801.083662423298
 30
0.0
 10
3464.299331785417
 20
1802.953008846692
 30
-0.0000000000009095
 10
3465.436746016062
 20
1803.709025825037
 30
0.0000000000009095
 10
3466.571820809753
 20
1804.281072168055
 30
0.0000000000002274
  0
LINE
  5
9B6
330
1F
100
AcDbEntity
  8
Model
100
AcDbLine
 10
3434.066500760754
 20
1798.553130020607
 30
0.0000000000002274
 11
3455.154308686496
 21
1786.378078438062
 31
-0.0000000000002274
210
-0.0000000000000001
220
0.8164965809277259
230
0.5773502691896259
  0
ELLIPSE
  5
9B7
330
1F
100
AcDbEntity
  8
Model
100
AcDbEllipse
 10
3216.984718936485
 20
1981.040115857955
 30
0.0000000000009095
 11
-395.0000000000001
 21
-0.0000000000001135
 31
-0.0000000000000492
210
-0.0000000000000001
220
0.0000000000000001
230
1.0
 40
0.5773502691896258
 41
2.254754787578664
 42
2.457634192806025
  0
LINE
  5
9B8
330
1F
100
AcDbEntity
  8
Model
100
AcDbLine
 10
3466.571820809753
 20
1804.281072168055
 30
0.0000000000002274
 11
3444.673102478552
 21
1816.924303091481
 31
0.0000000000002274
210
-0.0000000000000001
220
0.8164965809277259
230
0.5773502691896259
  0
SPLINE
  5
9B9
330
1F
100
AcDbEntity
  8
Model
100
AcDbSpline
210
0.0000000000003327
220
-0.0000000000013183
230
1.0
 70
     8
 71
     3
 72
    14
 73
    10
 74
     0
 42
0.000000001
 43
0.0000000001
 40
0.0
 40
0.0
 40
0.0
 40
0.0
 40
1.966311565827654
 40
1.966311565827654
 40
4.819922022796998
 40
4.819922022796998
 40
7.868401704087887
 40
7.868401704087887
 40
7.892786398515527
 40
7.892786398515527
 40
7.892786398515527
 40
7.892786398515527
 10
3523.140363304676
 20
1836.940935405164
 30
0.0000000000002274
 10
3523.785052631668
 20
1837.367340604534
 30
0.0
 10
3524.428420363199
 20
1837.715974958514
 30
0.0000000000002274
 10
3525.972702310031
 20
1838.363872969026
 30
0.0000000000006821
 10
3526.858476955188
 20
1838.56921271414
 30
0.0000000000011369
 10
3528.561041328259
 20
1838.607473876546
 30
0.0000000000009095
 10
3529.368759366974
 20
1838.413716482304
 30
0.0000000000002274
 10
3530.074696402258
 20
1838.01043864413
 30
0.0
 10
3530.08029152122
 20
1838.007225289204
 30
0.0000000000006821
 10
3530.085879786027
 20
1838.003998799399
 30
-0.0000000000006821
  0
LINE
  5
9BA
330
1F
100
AcDbEntity
  8
Model
100
AcDbLine
 10
3501.241644973476
 20
1849.58416632859
 30
0.000000000001819
 11
3523.140363304676
 21
1836.940935405164
 31
0.0000000000002274
210
-0.0000000000000001
220
0.8164965809277259
230
0.5773502691896259
  0
ELLIPSE
  5
9BB
330
1F
100
AcDbEntity
  8
Model
100
AcDbEllipse
 10
3501.241644973476
 20
1837.336717614674
 30
0.000000000001819
 11
7.499999999999988
 21
12.99038105676658
 31
0.0000000000000008
210
-0.0000000000000001
220
0.0
230
1.0
 40
0.5773502691896259
 41
0.0000000000001057
 42
0.7853981633974474
  0
ELLIPSE
  5
9BC
330
1F
100
AcDbEntity
  8
Model
100
AcDbEllipse
 10
3499.827431411103
 20
1838.153214195602
 30
0.0000000000009095
 11
8.499999999999987
 21
14.72243186433546
 31
0.0000000000000009
210
-0.0000000000000002
220
0.0
230
1.0
 40
0.5773502691896259
 41
5.793227980925902
 42
7.068583470577086
  0
ELLIPSE
  5
9BD
330
1F
100
AcDbEntity
  8
Model
100
AcDbEllipse
 10
3443.258888916179
 20
1670.771415105418
 30
-0.0000000000002274
 11
-8.499999999999987
 21
-14.72243186433546
 31
-0.0000000000000028
210
-0.0000000000000003
220
0.0
230
1.0
 40
0.5773502691896259
 41
5.497787143782136
 42
6.773142633433309
  0
ELLIPSE
  5
9BE
330
1F
100
AcDbEntity
  8
Model
100
AcDbEllipse
 10
3444.673102478554
 20
1669.95491852449
 30
0.0000000000002274
 11
-7.499999999999992
 21
-12.99038105676658
 31
0.0000000000000008
210
-0.0000000000000002
220
0.0000000000000002
230
1.0
 40
0.5773502691896259
 41
5.497787143782136
 42
6.283185307179584
  0
LINE
  5
9BF
330
1F
100
AcDbEntity
  8
Model
100
AcDbLine
 10
3444.673102478552
 20
1816.924303091481
 30
0.0000000000002274
 11
3501.241644973476
 21
1849.58416632859
 31
0.000000000001819
210
-0.0000000000000001
220
0.8164965809277259
230
0.5773502691896259
  0
LINE
  5
9C0
330
1F
100
AcDbEntity
  8
Model
100
AcDbLine
 10
3499.827431411103
 20
1852.033656071374
 30
0.0
 11
3443.258888916181
 21
1819.373792834264
 31
0.0
210
-0.0000000000000001
220
0.8164965809277259
230
0.5773502691896259
  0
ELLIPSE
  5
9C1
330
1F
100
AcDbEntity
  8
Model
100
AcDbEllipse
 10
3501.241644973476
 20
1851.217159490446
 30
0.0
 11
1.0
 21
-1.732050807568876
 31
0.0000000000000002
210
-0.0000000000000001
220
0.0000000000000001
230
1.0
 40
0.577350269189626
 41
3.926990816987467
 42
5.497787143782136
  0
LINE
  5
9C2
330
1F
100
AcDbEntity
  8
Model
100
AcDbLine
 10
3431.238073636009
 20
1798.553130020607
 30
-0.0000000000002274
 11
3431.238073636008
 21
1663.831194167533
 31
0.0000000000002274
210
-0.0000000000000001
220
0.8164965809277259
230
0.5773502691896259
  0
LINE
  5
9C3
330
1F
100
AcDbEntity
  8
Model
100
AcDbLine
 10
3434.066500760754
 20
1663.831194167533
 30
0.0000000000002274
 11
3434.066500760754
 21
1798.553130020607
 31
0.0000000000002274
210
-0.0000000000000001
220
0.8164965809277259
230
0.5773502691896259
  0
ELLIPSE
  5
9C4
330
1F
100
AcDbEntity
  8
Model
100
AcDbEllipse
 10
3432.65228719838
 20
1663.014697586605
 30
0.0000000000004547
 11
-2.0
 21
-0.0000000000000001
 31
-0.0000000000000004
210
-0.0000000000000002
220
0.0000000000000001
230
1.0
 40
0.577350269189626
 41
3.926990816987013
 42
5.497787143781683
  0
ELLIPSE
  5
9C5
330
1F
100
AcDbEntity
  8
Model
100
AcDbEllipse
 10
3443.258888916179
 20
1805.493350958493
 30
0.0000000000013642
 11
-8.500000000000007
 21
-14.72243186433543
 31
0.0000000000000009
210
-0.0000000000000001
220
0.0000000000000001
230
1.0
 40
0.577350269189626
 41
3.926990816987187
 42
5.497787143782112
  0
ELLIPSE
  5
9C6
330
1F
100
AcDbEntity
  8
Model
100
AcDbEllipse
 10
3444.673102478552
 20
1818.557296253336
 30
0.0000000000009095
 11
1.0
 21
-1.732050807568876
 31
0.0000000000000002
210
-0.0000000000000001
220
0.0000000000000001
230
1.0
 40
0.577350269189626
 41
3.926990816987241
 42
5.497787143782136
  0
ELLIPSE
  5
9C7
330
1F
100
AcDbEntity
  8
Model
100
AcDbEllipse
 10
3444.673102478552
 20
1804.676854377565
 30
0.0000000000002274
 11
7.500000000000008
 21
12.99038105676658
 31
-0.0000000000000008
210
-0.0000000000000001
220
0.0000000000000001
230
1.0
 40
0.5773502691896259
 41
0.7853981633974492
 42
2.356194490192345
  0
ELLIPSE
  5
9C8
330
1F
100
AcDbEntity
  8
Model
100
AcDbEllipse
 10
3432.65228719838
 20
1797.736633439679
 30
0.0
 11
-2.0
 21
-0.0000000000000001
 31
-0.0000000000000004
210
-0.0000000000000002
220
0.0000000000000001
230
1.0
 40
0.577350269189626
 41
3.926990816987013
 42
5.497787143781683
  0
SPLINE
  5
9C9
330
1F
100
AcDbEntity
  8
Model
100
AcDbSpline
210
0.0
220
0.0
230
1.0
 70
     8
 71
     3
 72
    18
 73
    14
 74
     0
 42
0.000000001
 43
0.0000000001
 40
0.0
 40
0.0
 40
0.0
 40
0.0
 40
1.966311565827654
 40
1.966311565827654
 40
4.819922022796998
 40
4.819922022796998
 40
7.868401704087887
 40
7.868401704087887
 40
9.825614111988896
 40
9.825614111988896
 40
13.19784412298634
 40
13.19784412298634
 40
15.75736548256792
 40
15.75736548256792
 40
15.75736548256792
 40
15.75736548256792
 10
3527.015751208069
 20
1831.03441224163
 30
0.0000000000006821
 10
3527.435142122001
 20
1831.331427337049
 30
0.0000000000004547
 10
3527.853248179237
 20
1831.576826788753
 30
0.0000000000004547
 10
3528.85584545588
 20
1832.040504774665
 30
0.0000000000009095
 10
3529.430044316362
 20
1832.196136981746
 30
0.0000000000011369
 10
3530.532332216699
 20
1832.258506165965
 30
0.0000000000013642
 10
3531.054453264478
 20
1832.147318284863
 30
0.0000000000006821
 10
3531.7970569777
 20
1831.735420184331
 30
0.0
 10
3532.05874542445
 20
1831.51703812869
 30
0.0000000000013642
 10
3532.680356336439
 20
1830.776397873609
 30
0.0
 10
3532.97379356663
 20
1830.147697152266
 30
0.0000000000004547
 10
3533.286584812534
 20
1828.81966871488
 30
0.0000000000009095
 10
3533.355151113293
 20
1828.174325477071
 30
0.0000000000006821
 10
3533.355151113293
 20
1827.477711997436
 30
0.0000000000009095
  0
LINE
  5
9CA
330
1F
100
AcDbEntity
  8
Model
100
AcDbLine
 10
3533.355151113293
 20
1827.477711997436
 30
0.0000000000009095
 11
3533.355151113293
 21
1692.75577614436
 31
0.0000000000006821
210
-0.0000000000000001
220
0.8164965809277259
230
0.5773502691896259
  0
SPLINE
  5
9CB
330
1F
100
AcDbEntity
  8
Model
100
AcDbSpline
210
-0.0000000000001549
220
0.0000000000000413
230
1.0
 70
     8
 71
     3
 72
    20
 73
    16
 74
     0
 42
0.000000001
 43
0.0000000001
 40
0.0000000000000477
 40
0.0000000000000477
 40
0.0000000000000477
 40
0.0000000000000477
 40
1.931285850202377
 40
1.931285850202377
 40
4.699173704916666
 40
4.699173704916666
 40
6.219168920210021
 40
6.219168920210021
 40
9.314834574411351
 40
9.314834574411351
 40
11.64852548138308
 40
11.64852548138308
 40
14.61089070080352
 40
14.61089070080352
 40
15.75737223592847
 40
15.75737223592847
 40
15.75737223592847
 40
15.75737223592847
 10
3533.355151113293
 20
1692.75577614436
 30
0.0000000000006821
 10
3533.355151113293
 20
1692.230146713199
 30
0.0000000000004547
 10
3533.316199124315
 20
1691.67540954889
 30
0.0000000000015916
 10
3533.128340543259
 20
1690.28044541878
 30
0.0
 10
3532.938913687131
 20
1689.420756313809
 30
0.0000000000004547
 10
3532.534139380422
 20
1688.081382290376
 30
-0.0000000000004547
 10
3532.369072310564
 20
1687.60513505904
 30
0.0000000000009095
 10
3531.807841071682
 20
1686.17152178184
 30
0.0000000000013642
 10
3531.349156257446
 20
1685.227584283302
 30
0.0000000000006821
 10
3530.436120688389
 20
1683.680714261975
 30
0.0000000000006821
 10
3530.008676362402
 20
1683.051065114079
 30
0.0000000000002274
 10
3528.984032629048
 20
1681.740411544302
 30
0.0000000000009095
 10
3528.372021036076
 20
1681.091523306381
 30
0.0
 10
3527.504375463826
 20
1680.34682855407
 30
-0.0000000000004547
 10
3527.260282109061
 20
1680.155722982686
 30
0.0000000000009095
 10
3527.015751208072
 20
1679.98254477
 30
0.0000000000002274
  0
ELLIPSE
  5
9CC
330
1F
100
AcDbEntity
  8
Model
100
AcDbEllipse
 10
3216.984718936485
 20
1825.905765481687
 30
0.0
 11
-400.0
 21
0.0000000000000232
 31
-0.0000000000000724
210
-0.0000000000000002
220
0.0000000000000001
230
1.0
 40
0.577350269189626
 41
2.426421975745431
 42
2.457634192806023
  0
ELLIPSE
  5
9CD
330
1F
100
AcDbEntity
  8
Model
100
AcDbEllipse
 10
3216.984718936485
 20
1825.905765481687
 30
0.0
 11
-400.0
 21
0.0000000000000232
 31
-0.0000000000000724
210
-0.0000000000000002
220
0.0000000000000001
230
1.0
 40
0.577350269189626
 41
2.254754787578667
 42
2.358350535968724
  0
SPLINE
  5
9CE
330
1F
100
AcDbEntity
  8
Model
100
AcDbSpline
210
-0.0000000000001311
220
0.0000000000001714
230
1.0
 70
     8
 71
     3
 72
    18
 73
    14
 74
     0
 42
0.000000001
 43
0.0000000001
 40
0.0
 40
0.0
 40
0.0
 40
0.0
 40
0.7369010769935449
 40
0.7369010769935449
 40
4.108846754545413
 40
4.108846754545413
 40
6.799231967542906
 40
6.799231967542906
 40
9.704492483000603
 40
9.704492483000603
 40
12.8187022561587
 40
12.8187022561587
 40
15.75737223592844
 40
15.75737223592844
 40
15.75737223592844
 40
15.75737223592844
 10
3469.73115121321
 20
1646.909265542547
 30
0.0000000000015916
 10
3469.538356106393
 20
1646.818522100775
 30
0.0000000000004547
 10
3469.345414435104
 20
1646.735199750675
 30
0.0000000000004547
 10
3468.271642619203
 20
1646.313193745757
 30
0.0000000000009095
 10
3467.398301643162
 20
1646.128262146101
 30
0.0000000000009095
 10
3465.929470135036
 20
1646.103348535115
 30
0.0000000000011369
 10
3465.313490331832
 20
1646.200853126249
 30
0.0
 10
3464.153990109578
 20
1646.622103277597
 30
0.0000000000009095
 10
3463.620408045482
 20
1646.963349364915
 30
0.0000000000015916
 10
3462.705153666763
 20
1647.89522175413
 30
0.0000000000011369
 10
3462.337603478041
 20
1648.501942807712
 30
0.0
 10
3461.866564344212
 20
1649.86686225043
 30
0.0000000000006821
 10
3461.749401119719
 20
1650.614372446393
 30
0.0000000000002274
 10
3461.749401119717
 20
1651.414177110045
 30
-0.0000000000002274
  0
LINE
  5
9CF
330
1F
100
AcDbEntity
  8
Model
100
AcDbLine
 10
3461.749401119717
 20
1651.414177110045
 30
-0.0000000000002274
 11
3461.749401119717
 21
1786.13611296312
 31
0.0
210
-0.0000000000000001
220
0.8164965809277259
230
0.5773502691896259
  0
SPLINE
  5
9D0
330
1F
100
AcDbEntity
  8
Model
100
AcDbSpline
210
-0.0000000000001985
220
0.000000000000134
230
1.0
 70
     8
 71
     3
 72
    16
 73
    12
 74
     0
 42
0.000000001
 43
0.0000000001
 40
0.0
 40
0.0
 40
0.0
 40
0.0
 40
3.318095753297203
 40
3.318095753297203
 40
6.581226467333607
 40
6.581226467333607
 40
9.5263566159946
 40
9.5263566159946
 40
12.73537081078735
 40
12.73537081078735
 40
15.75736548256709
 40
15.75736548256709
 40
15.75736548256709
 40
15.75736548256709
 10
3461.749401119717
 20
1786.13611296312
 30
0.0
 10
3461.749401119717
 20
1787.039184242372
 30
-0.0000000000002274
 10
3461.899070683948
 20
1788.008799581451
 30
0.0000000000004547
 10
3462.474714249516
 20
1789.958779402402
 30
0.0
 10
3462.895828342374
 20
1790.938351341196
 30
0.0000000000009095
 10
3463.909307224314
 20
1792.729870549434
 30
-0.0000000000004547
 10
3464.48054985688
 20
1793.548611236511
 30
0.0000000000009095
 10
3465.809880506785
 20
1795.124378783687
 30
0.0000000000004547
 10
3466.579819798609
 20
1795.868842991508
 30
0.0000000000009095
 10
3468.147344645169
 20
1797.094776237877
 30
-0.0000000000002274
 10
3468.940508067547
 20
1797.588998672
 30
0.0000000000009095
 10
3469.731151213212
 20
1797.961133014177
 30
0.0
  0
ELLIPSE
  5
9D1
330
1F
100
AcDbEntity
  8
Model
100
AcDbEllipse
 10
3216.984718936485
 20
1976.957632953316
 30
0.0000000000009095
 11
400.0
 21
-0.0000000000000232
 31
0.0000000000000724
210
-0.0000000000000002
220
0.0000000000000001
230
1.0
 40
0.577350269189626
 41
5.396347441168459
 42
5.59922684639582
  0
SPLINE
  5
9D2
330
1F
100
AcDbEntity
  8
Model
100
AcDbSpline
210
0.0000000000001334
220
0.0000000000000628
230
1.0
 70
     8
 71
     3
 72
    24
 73
    20
 74
     0
 42
0.000000001
 43
0.0000000001
 40
-17.83189997569754
 40
-17.83189997569754
 40
-17.83189997569754
 40
-17.83189997569754
 40
-17.28870088254659
 40
-17.28870088254659
 40
-14.93427723526271
 40
-14.93427723526271
 40
-12.45856778359048
 40
-12.45856778359048
 40
-9.982864741108189
 40
-9.982864741108189
 40
-7.491321538016414
 40
-7.491321538016414
 40
-5.918956059199342
 40
-5.918956059199342
 40
-4.346590580382271
 40
-4.346590580382271
 40
-2.618074844043788
 40
-2.618074844043788
 40
-1.368686591279345
 40
-1.368686591279345
 40
-1.368686591279345
 40
-1.368686591279345
 10
3501.342903650094
 20
1686.060470774677
 30
0.0000000000013642
 10
3501.470555766945
 20
1686.109878259079
 30
0.0000000000011369
 10
3501.597720402096
 20
1686.155908917632
 30
0.0000000000002274
 10
3502.272341192349
 20
1686.383006859353
 30
0.0000000000011369
 10
3502.807289304191
 20
1686.502073294651
 30
0.0000000000002274
 10
3503.851176730498
 20
1686.609508733277
 30
0.0000000000004547
 10
3504.367534597745
 20
1686.591818531424
 30
-0.0000000000006821
 10
3505.333286906611
 20
1686.407517343169
 30
-0.0000000000004547
 10
3505.782346359523
 20
1686.240964431344
 30
0.0000000000002274
 10
3506.593611399156
 20
1685.770909976752
 30
0.0000000000006821
 10
3506.963033058254
 20
1685.462040703399
 30
-0.0000000000002274
 10
3507.486600516267
 20
1684.84987125826
 30
0.0000000000004547
 10
3507.669933685801
 20
1684.586759161727
 30
0.0000000000004547
 10
3507.994706725428
 20
1684.014642142781
 30
-0.0000000000002274
 10
3508.135797633892
 20
1683.706952268176
 30
0.0000000000004547
 10
3508.389608912876
 20
1683.011816878958
 30
0.0000000000009095
 10
3508.497579925315
 20
1682.61977876458
 30
-0.0000000000004547
 10
3508.637627862737
 20
1681.904576526272
 30
0.0000000000004547
 10
3508.682359461
 20
1681.592450378569
 30
0.0000000000002274
 10
3508.713070765019
 20
1681.270670865158
 30
0.0000000000006821
  0
ELLIPSE
  5
9D3
330
1F
100
AcDbEntity
  8
Model
100
AcDbEllipse
 10
3498.413217848729
 20
1675.670394590985
 30
0.0
 11
4.999999999999998
 21
8.660254037844389
 31
0.0000000000000006
210
-0.0000000000000002
220
0.0
230
1.0
 40
0.5773502691896258
 41
-0.0000000000000326
 42
0.2675633492102738
  0
ELLIPSE
  5
9D4
330
1F
100
AcDbEntity
  8
Model
100
AcDbEllipse
 10
3498.413217848729
 20
1675.670394590985
 30
0.0
 11
4.999999999999998
 21
8.660254037844389
 31
0.0000000000000006
210
-0.0000000000000002
220
0.0
230
1.0
 40
0.5773502691896258
 41
2.840333178852804
 42
3.141592653589759
  0
SPLINE
  5
9D5
330
1F
100
AcDbEntity
  8
Model
100
AcDbSpline
210
0.0000000000002933
220
-0.0000000000001029
230
1.0
 70
     8
 71
     3
 72
    44
 73
    40
 74
     0
 42
0.000000001
 43
0.0000000001
 40
-58.51441659984349
 40
-58.51441659984349
 40
-58.51441659984349
 40
-58.51441659984349
 40
-56.77915765259547
 40
-56.77915765259547
 40
-54.52197026403155
 40
-54.52197026403155
 40
-52.04514854157536
 40
-52.04514854157536
 40
-49.56833322762482
 40
-49.56833322762482
 40
-47.07583991599421
 40
-47.07583991599421
 40
-45.50535507506895
 40
-45.50535507506895
 40
-43.93487023414365
 40
-43.93487023414365
 40
-42.21330897290818
 40
-42.21330897290818
 40
-39.5835633392371
 40
-39.5835633392371
 40
-36.91399016817889
 40
-36.91399016817889
 40
-35.45700001126898
 40
-35.45700001126898
 40
-34.00000985435906
 40
-34.00000985435906
 40
-32.2954870599397
 40
-32.2954870599397
 40
-29.66546700662945
 40
-29.66546700662945
 40
-27.04992574095725
 40
-27.04992574095725
 40
-25.61050293052929
 40
-25.61050293052929
 40
-24.17108012010133
 40
-24.17108012010133
 40
-22.50050554725643
 40
-22.50050554725643
 40
-22.09302193089976
 40
-22.09302193089976
 40
-22.09302193089976
 40
-22.09302193089976
 10
3498.843638604427
 20
1663.874989113405
 30
0.0
 10
3498.430162247526
 20
1663.689627008543
 30
0.0000000000009095
 10
3498.017177405681
 20
1663.538145730849
 30
0.0000000000015916
 10
3497.081711937761
 20
1663.274450186788
 30
0.0000000000004547
 10
3496.563979377129
 20
1663.187645462426
 30
0.0000000000013642
 10
3495.526605560316
 20
1663.136297606925
 30
-0.0000000000009095
 10
3495.001378081714
 20
1663.184076075581
 30
0.0000000000009095
 10
3494.017831702181
 20
1663.429624509421
 30
0.0000000000011369
 10
3493.559879846185
 20
1663.627299359297
 30
0.0000000000004547
 10
3492.733378294191
 20
1664.157794291802
 30
0.0000000000006821
 10
3492.357483177732
 20
1664.496535280245
 30
0.0000000000011369
 10
3491.827647088453
 20
1665.153903886713
 30
0.0000000000015916
 10
3491.642989862197
 20
1665.43341259515
 30
0.0000000000006821
 10
3491.317834521542
 20
1666.036037429716
 30
0.0000000000002274
 10
3491.177675410031
 20
1666.357794339449
 30
0.0000000000002274
 10
3490.928948405527
 20
1667.078849365619
 30
0.0000000000002274
 10
3490.82526205377
 20
1667.482311152971
 30
-0.0000000000009095
 10
3490.634626050519
 20
1668.555729097115
 30
-0.0000000000004547
 10
3490.585800628207
 20
1669.253916039421
 30
0.0000000000006821
 10
3490.620534162957
 20
1670.714497139686
 30
-0.0000000000015916
 10
3490.70648899857
 20
1671.492655062968
 30
0.0000000000013642
 10
3490.943762024872
 20
1672.724026528436
 30
0.0000000000002274
 10
3491.047487155821
 20
1673.164138097239
 30
0.0000000000002274
 10
3491.292276366675
 20
1674.046482023981
 30
0.0000000000002274
 10
3491.432732545406
 20
1674.487229729959
 30
0.0
 10
3491.778398995439
 20
1675.448886181888
 30
0.0
 10
3491.990539172439
 20
1675.969816027489
 30
0.0000000000004547
 10
3492.589094263773
 20
1677.283134504042
 30
0.0000000000009095
 10
3493.007715395115
 20
1678.068853469159
 30
0.0000000000004547
 10
3493.923473884892
 20
1679.566356360737
 30
-0.0000000000002274
 10
3494.429275365253
 20
1680.293411757237
 30
0.0000000000009095
 10
3495.266007331173
 20
1681.353582948332
 30
0.0000000000002274
 10
3495.573145587745
 20
1681.716822093263
 30
0.0
 10
3496.20129552265
 20
1682.410444265427
 30
0.0000000000002274
 10
3496.521176489426
 20
1682.739834788204
 30
0.0
 10
3497.228990971683
 20
1683.418551199699
 30
-0.0000000000002274
 10
3497.619108284796
 20
1683.761746803842
 30
0.0000000000009095
 10
3498.11036505286
 20
1684.155971226739
 30
-0.0000000000004547
 10
3498.206985381462
 20
1684.231721240995
 30
0.0000000000002274
 10
3498.303795407276
 20
1684.305840812588
 30
0.0000000000004547
  0
SPLINE
  5
9D6
330
1F
100
AcDbEntity
  8
Model
100
AcDbSpline
210
0.0000000000000369
220
-0.0000000000000364
230
1.0
 70
     8
 71
     3
 72
    44
 73
    40
 74
     0
 42
0.000000001
 43
0.0000000001
 40
21.31267735739067
 40
21.31267735739067
 40
21.31267735739067
 40
21.31267735739067
 40
24.39721361483946
 40
24.39721361483946
 40
26.86271307370671
 40
26.86271307370671
 40
30.95108739850083
 40
30.95108739850083
 40
34.18584169793479
 40
34.18584169793479
 40
36.6194192698004
 40
36.6194192698004
 40
39.05299684166601
 40
39.05299684166601
 40
41.49561739196911
 40
41.49561739196911
 40
45.1057794293181
 40
45.1057794293181
 40
48.84441407349047
 40
48.84441407349047
 40
51.3014364093735
 40
51.3014364093735
 40
55.44977307358535
 40
55.44977307358535
 40
58.60554509354711
 40
58.60554509354711
 40
61.02747983677746
 40
61.02747983677746
 40
63.44941458000779
 40
63.44941458000779
 40
65.91342862029328
 40
65.91342862029328
 40
69.51948806035129
 40
69.51948806035129
 40
73.31969873707797
 40
73.31969873707797
 40
76.85227627289011
 40
76.85227627289011
 40
78.35675001783489
 40
78.35675001783489
 40
78.35675001783489
 40
78.35675001783489
 10
3498.303795407274
 20
1684.30584081259
 30
0.0000000000004547
 10
3497.398232918045
 20
1683.932374443777
 30
0.0000000000004547
 10
3496.50399042191
 20
1683.698896452656
 30
0.0000000000009095
 10
3494.965810857383
 20
1683.542548448553
 30
0.0
 10
3494.307583365278
 20
1683.566548533396
 30
0.0000000000002274
 10
3492.660342731302
 20
1683.876510677662
 30
0.0000000000002274
 10
3491.739824840605
 20
1684.325777704748
 30
0.0000000000015916
 10
3490.375967632658
 20
1685.542734060899
 30
0.0
 10
3489.873046051139
 20
1686.223745608316
 30
-0.0000000000002274
 10
3489.198416406219
 20
1687.627005728606
 30
0.0000000000011369
 10
3488.975347772856
 20
1688.297128650485
 30
0.0
 10
3488.67177623783
 20
1689.746825116029
 30
0.0000000000011369
 10
3488.59129720916
 20
1690.526305970551
 30
-0.0000000000006821
 10
3488.576291911513
 20
1692.16778055113
 30
0.0000000000015916
 10
3488.64231087664
 20
1693.030120061673
 30
0.0000000000004547
 10
3488.984686067754
 20
1695.22566642696
 30
0.0000000000004547
 10
3489.347036644402
 20
1696.586648274551
 30
0.0000000000006821
 10
3490.372812986799
 20
1699.349426073138
 30
-0.0000000000006821
 10
3491.046411268469
 20
1700.750637310368
 30
0.0000000000002274
 10
3492.359975360994
 20
1702.964846658201
 30
0.0000000000004547
 10
3492.932086142559
 20
1703.814986803595
 30
0.0000000000002274
 10
3494.575967635995
 20
1705.982459553274
 30
-0.0000000000004547
 10
3495.720660742027
 20
1707.217327319137
 30
0.0000000000009095
 10
3497.819580288944
 20
1709.054224210116
 30
0.0000000000011369
 10
3498.753495671216
 20
1709.737125101142
 30
0.0000000000011369
 10
3500.398555990852
 20
1710.710431050866
 30
0.0000000000004547
 10
3501.111057858637
 20
1711.055363959572
 30
0.0000000000020464
 10
3502.505909351765
 20
1711.576693015534
 30
0.0000000000002274
 10
3503.188176435832
 20
1711.753055834063
 30
-0.0000000000009095
 10
3504.508982966768
 20
1711.931695298509
 30
0.0000000000006821
 10
3505.146601813639
 20
1711.93088744029
 30
0.0000000000002274
 10
3506.618371687399
 20
1711.704047236522
 30
0.0000000000004547
 10
3507.406071462873
 20
1711.37315069649
 30
0.0000000000009095
 10
3508.784759843257
 20
1710.315703220462
 30
0.0000000000011369
 10
3509.36266194833
 20
1709.568674619281
 30
0.0000000000002274
 10
3510.181718125873
 20
1707.795981884243
 30
0.000000000001819
 10
3510.443868910439
 20
1706.793883645943
 30
0.0000000000011369
 10
3510.615665476624
 20
1705.209470146441
 30
0.0000000000004547
 10
3510.641403998768
 20
1704.716593754928
 30
0.0000000000004547
 10
3510.641403998768
 20
1704.20764487456
 30
0.0
  0
SPLINE
  5
9D7
330
1F
100
AcDbEntity
  8
Model
100
AcDbSpline
210
-0.0000000000001802
220
0.0000000000000923
230
1.0
 70
     8
 71
     3
 72
    20
 73
    16
 74
     0
 42
0.000000001
 43
0.0000000001
 40
0.0
 40
0.0
 40
0.0
 40
0.0
 40
2.442896945736835
 40
2.442896945736835
 40
5.895084232660027
 40
5.895084232660027
 40
7.843751031638473
 40
7.843751031638473
 40
11.76071816388524
 40
11.76071816388524
 40
14.70635000125016
 40
14.70635000125016
 40
17.12925234243267
 40
17.12925234243267
 40
17.86558060902327
 40
17.86558060902327
 40
17.86558060902327
 40
17.86558060902327
 10
3510.641403998768
 20
1704.20764487456
 30
0.0
 10
3510.641403998768
 20
1703.38123652442
 30
0.0
 10
3510.573421821642
 20
1702.512327704128
 30
0.0000000000004547
 10
3510.248051960943
 20
1700.353296792231
 30
0.0000000000002274
 10
3509.923699782175
 20
1699.037655342017
 30
0.0000000000004547
 10
3509.223972663235
 20
1696.978048249848
 30
-0.0000000000004547
 10
3508.932489988525
 20
1696.23468858791
 30
0.0000000000006821
 10
3507.94731177577
 20
1694.024432969953
 30
0.0000000000004547
 10
3507.14405364182
 20
1692.58574666106
 30
0.0000000000009095
 10
3505.54425306208
 20
1690.255396511704
 30
0.0000000000004547
 10
3504.795802560179
 20
1689.316649074861
 30
0.0000000000015916
 10
3503.354797192385
 20
1687.766524210561
 30
0.0
 10
3502.675898175557
 20
1687.126486527326
 30
0.0
 10
3501.769511075302
 20
1686.385648372918
 30
0.0000000000004547
 10
3501.556759065216
 20
1686.219593888493
 30
0.0000000000011369
 10
3501.342903650094
 20
1686.060470774678
 30
0.0
  0
SPLINE
  5
9D8
330
1F
100
AcDbEntity
  8
Model
100
AcDbSpline
210
-0.0000000000001475
220
-0.0000000000002628
230
1.0
 70
     8
 71
     3
 72
    24
 73
    20
 74
     0
 42
0.000000001
 43
0.0000000001
 40
-0.015038526226548
 40
-0.015038526226548
 40
-0.015038526226548
 40
-0.015038526226548
 40
0.0
 40
0.0
 40
1.016173575979417
 40
1.016173575979417
 40
1.633353592166998
 40
1.633353592166998
 40
1.93253264156579
 40
1.93253264156579
 40
2.166759440856003
 40
2.166759440856003
 40
2.426148859654919
 40
2.426148859654919
 40
2.851776834542251
 40
2.851776834542251
 40
4.212389196453075
 40
4.212389196453075
 40
4.227823209976594
 40
4.227823209976594
 40
4.227823209976594
 40
4.227823209976594
 10
3498.303795407279
 20
1684.305840812592
 30
0.0000000000002274
 10
3498.307358895193
 20
1684.307909620923
 30
0.0
 10
3498.310922788769
 20
1684.309978891892
 30
0.0000000000006821
 10
3498.555236727372
 20
1684.451847888571
 30
0.0000000000011369
 10
3498.801377594727
 20
1684.595750917084
 30
0.0000000000002274
 10
3499.189364108558
 20
1684.821995853402
 30
0.0000000000009095
 10
3499.336142238518
 20
1684.90746581725
 30
0.0000000000015916
 10
3499.558508864121
 20
1685.036522791115
 30
0.0000000000004547
 10
3499.630974256064
 20
1685.078514666469
 30
0.0000000000006821
 10
3499.760584304408
 20
1685.15348959633
 30
0.0000000000006821
 10
3499.817395293026
 20
1685.18630806733
 30
0.0000000000006821
 10
3499.937394940538
 20
1685.255533652235
 30
0.0000000000011369
 10
3500.000316327291
 20
1685.291776287461
 30
-0.0000000000002274
 10
3500.166864295627
 20
1685.387569011411
 30
0.0000000000011369
 10
3500.270032463828
 20
1685.446765064331
 30
0.0000000000009095
 10
3500.70222552458
 20
1685.694311232459
 30
0.0000000000015916
 10
3501.021481884091
 20
1685.875979658186
 30
-0.0000000000004547
 10
3501.335851918592
 20
1686.056422539139
 30
0.0
 10
3501.339378194039
 20
1686.058446779474
 30
0.0000000000004547
 10
3501.342903650093
 20
1686.060470774675
 30
0.0000000000011369
  0
LINE
  5
9D9
330
1F
100
AcDbEntity
  8
Model
100
AcDbLine
 10
3525.573349290663
 20
1648.157439674752
 30
0.0000000000006821
 11
3525.573349290662
 21
1649.281768818044
 31
0.000000000001819
210
-0.0000000000000001
220
0.8164965809277259
230
0.5773502691896259
  0
LINE
  5
9DA
330
1F
100
AcDbEntity
  8
Model
100
AcDbLine
 10
3524.441451567192
 20
1652.560083078446
 30
0.0
 11
3512.944440768988
 21
1659.197885357665
 31
0.0000000000004547
210
-0.0000000000000001
220
0.8164965809277259
230
0.5773502691896259
  0
LINE
  5
9DB
330
1F
100
AcDbEntity
  8
Model
100
AcDbLine
 10
3531.441451567191
 20
1664.684438731428
 30
0.0000000000009095
 11
3519.944440768988
 21
1671.322241010648
 31
-0.0000000000002274
210
-0.0000000000000001
220
0.8164965809277259
230
0.5773502691896259
  0
SPLINE
  5
9DC
330
1F
100
AcDbEntity
  8
Model
100
AcDbSpline
210
-0.0000000000014269
220
-0.000000000000744
230
-1.0
 70
     8
 71
     3
 72
    12
 73
     8
 74
     0
 42
0.000000001
 43
0.0000000001
 40
5.544945072770269
 40
5.544945072770269
 40
5.544945072770269
 40
5.544945072770269
 40
5.834530897833682
 40
5.834530897833682
 40
6.145437122417972
 40
6.145437122417972
 40
6.164657992343302
 40
6.164657992343302
 40
6.164657992343302
 40
6.164657992343302
 10
3521.191362176306
 20
1672.936068005652
 30
0.0000000000009095
 10
3521.651740021672
 20
1672.617608153329
 30
-0.0000000000006821
 10
3522.033189524317
 20
1672.181213814948
 30
0.0000000000002274
 10
3522.625479959675
 20
1671.102477055127
 30
0.0000000000002274
 10
3522.823876784678
 20
1670.4479819067
 30
0.0000000000015916
 10
3522.922095531441
 20
1669.686565160895
 30
0.0000000000002274
 10
3522.92741104116
 20
1669.641992253452
 30
0.0000000000004547
 10
3522.932324576063
 20
1669.597185490325
 30
0.0000000000009095
  0
SPLINE
  5
9DD
330
1F
100
AcDbEntity
  8
Model
100
AcDbSpline
210
-0.0000000000002418
220
0.0000000000014066
230
-1.0
 70
     8
 71
     3
 72
    12
 73
     8
 74
     0
 42
0.000000001
 43
0.0000000001
 40
7.972508948810643
 40
7.972508948810643
 40
7.972508948810643
 40
7.972508948810643
 40
8.114565583168875
 40
8.114565583168875
 40
8.438358237876261
 40
8.438358237876261
 40
8.592221868383802
 40
8.592221868383802
 40
8.592221868383802
 40
8.592221868383802
 10
3515.932324576063
 20
1657.472829837342
 30
0.0000000000006821
 10
3515.627378094724
 20
1657.338701514264
 30
-0.0000000000006821
 10
3515.322507018214
 20
1657.229980528408
 30
0.0000000000013642
 10
3514.33083870129
 20
1656.962772589381
 30
0.0
 10
3513.652634423651
 20
1656.91929675237
 30
0.0000000000004547
 10
3512.725900120878
 20
1657.092055632644
 30
0.0
 10
3512.43912687028
 20
1657.183870848794
 30
0.0000000000011369
 10
3512.170286297659
 20
1657.311106244901
 30
0.0000000000013642
  0
SPLINE
  5
9DE
330
1F
100
AcDbEntity
  8
Model
100
AcDbSpline
210
-0.0000000000000083
220
-0.0000000000000328
230
1.0
 70
     8
 71
     3
 72
    26
 73
    22
 74
     0
 42
0.000000001
 43
0.0000000001
 40
2.356194490192429
 40
2.356194490192429
 40
2.356194490192429
 40
2.356194490192429
 40
2.731427750978303
 40
2.731427750978303
 40
3.054661772276714
 40
3.054661772276714
 40
3.362804904901171
 40
3.362804904901171
 40
3.671926623207018
 40
3.671926623207018
 40
3.982999657331386
 40
3.982999657331386
 40
4.294602043825355
 40
4.294602043825355
 40
4.605092121178403
 40
4.605092121178403
 40
4.913425665629959
 40
4.913425665629959
 40
5.223430008478066
 40
5.223430008478066
 40
5.497787143782222
 40
5.497787143782222
 40
5.497787143782222
 40
5.497787143782222
 10
3512.944440768986
 20
1659.197885357665
 30
0.0000000000009095
 10
3512.569207508202
 20
1659.414526381789
 30
-0.0000000000009095
 10
3512.259059490848
 20
1659.754310583091
 30
0.0000000000002274
 10
3511.835613507151
 20
1660.634311019943
 30
0.0
 10
3511.705208360311
 20
1661.139675813994
 30
0.0000000000002274
 10
3511.61615254594
 20
1662.268204097953
 30
0.0
 10
3511.649676839809
 20
1662.883620659691
 30
-0.0000000000009095
 10
3511.876439948874
 20
1664.178846784679
 30
-0.0000000000002274
 10
3512.069959940615
 20
1664.858551904066
 30
0.0000000000009095
 10
3512.601742498414
 20
1666.212789365199
 30
0.0000000000011369
 10
3512.94077376925
 20
1666.887059642245
 30
0.0000000000009095
 10
3513.72978108724
 20
1668.156921811892
 30
0.0000000000006821
 10
3514.179832931369
 20
1668.752169074923
 30
0.0000000000006821
 10
3515.14067818193
 20
1669.799438323579
 30
0.0000000000004547
 10
3515.651145601992
 20
1670.251711062696
 30
0.0000000000009095
 10
3516.672712144507
 20
1670.968568480665
 30
0.0000000000002274
 10
3517.183513758148
 20
1671.234003923772
 30
0.0
 10
3518.149587673446
 20
1671.564434406553
 30
0.0000000000004547
 10
3518.603078944524
 20
1671.628191316624
 30
0.0000000000013642
 10
3519.357375577599
 20
1671.575299550369
 30
-0.0000000000004547
 10
3519.670083633683
 20
1671.480641176569
 30
0.0000000000015916
 10
3519.944440768988
 20
1671.322241010647
 30
-0.0000000000009095
  0
LINE
  5
9DF
330
1F
100
AcDbEntity
  8
Model
100
AcDbLine
 10
3500.014187694961
 20
1663.199068835507
 30
0.0000000000004547
 11
3493.41321784873
 21
1667.010140553141
 31
-0.0000000000002274
210
-0.0000000000000001
220
0.8164965809277259
230
0.5773502691896259
  0
LINE
  5
9E0
330
1F
100
AcDbEntity
  8
Model
100
AcDbLine
 10
3510.014187694959
 20
1680.519576911195
 30
0.0000000000009095
 11
3503.41321784873
 21
1684.330648628828
 31
0.0000000000002274
210
-0.0000000000000001
220
0.8164965809277259
230
0.5773502691896259
  0
LINE
  5
9E1
330
1F
100
AcDbEntity
  8
Model
100
AcDbLine
 10
3512.170286297661
 20
1657.311106244901
 30
0.0000000000009095
 11
3502.659950051201
 21
1661.81210617817
 31
0.0000000000009095
210
-0.0000000000000001
220
0.8164965809277259
230
0.5773502691896259
  0
LINE
  5
9E2
330
1F
100
AcDbEntity
  8
Model
100
AcDbLine
 10
3521.191362176307
 20
1672.936068005651
 30
0.0000000000002274
 11
3512.538213768433
 21
1678.921760826982
 31
0.0000000000009095
210
-0.0000000000000001
220
0.8164965809277259
230
0.5773502691896259
  0
SPLINE
  5
9E3
330
1F
100
AcDbEntity
  8
Model
100
AcDbSpline
210
0.0000000000054789
220
0.0000000000075164
230
1.0
 70
     8
 71
     3
 72
    16
 73
    12
 74
     0
 42
0.000000001
 43
0.0000000001
 40
0.7382402344089615
 40
0.7382402344089615
 40
0.7382402344089615
 40
0.7382402344089615
 40
0.7476718202066677
 40
0.7476718202066677
 40
0.7571034060043739
 40
0.7571034060043739
 40
0.7665349918020801
 40
0.7665349918020801
 40
0.7759665775997863
 40
0.7759665775997863
 40
0.7853981633974926
 40
0.7853981633974926
 40
0.7853981633974926
 40
0.7853981633974926
 10
3512.53821376844
 20
1678.921760826978
 30
-0.0000000000002274
 10
3512.375132576086
 20
1679.034569931405
 30
0.0000000000004547
 10
3512.210910215062
 20
1679.14620734552
 30
0.0
 10
3511.880303492753
 20
1679.367031468743
 30
0.0000000000002274
 10
3511.713919143121
 20
1679.476218165423
 30
0.0000000000009095
 10
3511.379114120317
 20
1679.692038644139
 30
-0.0000000000004547
 10
3511.210693459761
 20
1679.798672414568
 30
0.0000000000004547
 10
3510.871946445902
 20
1680.009290333108
 30
0.0000000000011369
 10
3510.701620106094
 20
1680.113274470523
 30
0.0000000000011369
 10
3510.359196926625
 20
1680.318502252261
 30
0.0000000000009095
 10
3510.187100101249
 20
1680.419745886878
 30
0.0000000000011369
 10
3510.014187694956
 20
1680.519576911197
 30
0.0000000000015916
  0
SPLINE
  5
9E4
330
1F
100
AcDbEntity
  8
Model
100
AcDbSpline
210
0.0000000000050866
220
0.0000000000095393
230
-1.0
 70
     8
 71
     3
 72
    16
 73
    12
 74
     0
 42
0.000000001
 43
0.0000000001
 40
3.926990816987284
 40
3.926990816987284
 40
3.926990816987284
 40
3.926990816987284
 40
3.936422402784967
 40
3.936422402784967
 40
3.945853988582651
 40
3.945853988582651
 40
3.955285574380335
 40
3.955285574380335
 40
3.964717160178018
 40
3.964717160178018
 40
3.974148745975703
 40
3.974148745975703
 40
3.974148745975703
 40
3.974148745975703
 10
3500.014187694963
 20
1663.199068835505
 30
0.0000000000006821
 10
3500.187100101252
 20
1663.099237811186
 30
0.0000000000004547
 10
3500.360828073493
 20
1663.000819405809
 30
0.0000000000004547
 10
3500.709772135773
 20
1662.806886124415
 30
0.0000000000006821
 10
3500.884988210267
 20
1662.711371255914
 30
-0.0000000000002274
 10
3501.236762185145
 20
1662.523316695728
 30
0.0000000000004547
 10
3501.413320069515
 20
1662.430777010378
 30
0.0000000000006821
 10
3501.76762859814
 20
1662.248737594675
 30
0.0000000000009095
 10
3501.945379226036
 20
1662.159237869442
 30
-0.0000000000002274
 10
3502.30192188767
 20
1661.983336110871
 30
0.0000000000006821
 10
3502.480713904818
 20
1661.896934081411
 30
0.0000000000006821
 10
3502.659950051207
 20
1661.812106178168
 30
0.0000000000009095
  0
SPLINE
  5
9E5
330
1F
100
AcDbEntity
  8
Model
100
AcDbSpline
210
0.0000000000001322
220
-0.0000000000000825
230
1.0
 70
     8
 71
     3
 72
    26
 73
    22
 74
     0
 42
0.000000001
 43
0.0000000001
 40
3.926990816987223
 40
3.926990816987223
 40
3.926990816987223
 40
3.926990816987223
 40
4.217315523779721
 40
4.217315523779721
 40
4.524713591271846
 40
4.524713591271846
 40
4.850969265808486
 40
4.850969265808486
 40
5.179808402372369
 40
5.179808402372369
 40
5.507184551901941
 40
5.507184551901941
 40
5.833918852900894
 40
5.833918852900894
 40
6.161367178387626
 40
6.161367178387626
 40
6.490255128455031
 40
6.490255128455031
 40
6.815928454099648
 40
6.815928454099648
 40
7.068583470577016
 40
7.068583470577016
 40
7.068583470577016
 40
7.068583470577016
 10
3527.250789955092
 20
1648.051359457999
 30
0.0000000000002274
 10
3527.758858191978
 20
1647.758026124666
 30
0.0000000000006821
 10
3528.340412869749
 20
1647.595647569939
 30
0.0
 10
3529.604228209592
 20
1647.537387164231
 30
0.0000000000006821
 10
3530.290194558653
 20
1647.655208043999
 30
0.0000000000011369
 10
3531.716206489602
 20
1648.165806904421
 30
0.0000000000009095
 10
3532.458113916408
 20
1648.575151572374
 30
0.0000000000013642
 10
3533.901368225411
 20
1649.640852415377
 30
0.0000000000002274
 10
3534.602169148574
 20
1650.299357001353
 30
0.0000000000009095
 10
3535.888993246201
 20
1651.792272404547
 30
0.000000000001819
 10
3536.475210280055
 20
1652.62569391558
 30
0.0000000000006821
 10
3537.478288880254
 20
1654.385053380299
 30
0.0000000000011369
 10
3537.895296585298
 20
1655.310474001589
 30
0.0000000000002274
 10
3538.519637850118
 20
1657.166169763761
 30
0.0000000000004547
 10
3538.726511699987
 20
1658.096098759465
 30
0.0000000000002274
 10
3538.904103884998
 20
1659.873673129703
 30
0.0000000000004547
 10
3538.874055557187
 20
1660.720926405804
 30
0.0000000000002274
 10
3538.565020327256
 20
1662.241102318876
 30
0.0000000000006821
 10
3538.287694606655
 20
1662.916876121558
 30
-0.0000000000004547
 10
3537.577560524111
 20
1663.897621761711
 30
0.0000000000002274
 10
3537.192936233926
 20
1664.250568856796
 30
0.0000000000002274
 10
3536.750789955092
 20
1664.505842129903
 30
0.0000000000011369
  0
LINE
  5
9E6
330
1F
100
AcDbEntity
  8
Model
100
AcDbLine
 10
3527.250789955092
 20
1648.051359457999
 30
0.0
 11
3526.543683173904
 21
1648.459607748462
 31
0.0000000000011369
210
-0.0000000000000001
220
0.8164965809277259
230
0.5773502691896259
  0
LINE
  5
9E7
330
1F
100
AcDbEntity
  8
Model
100
AcDbLine
 10
3536.750789955092
 20
1664.505842129903
 30
0.0000000000013642
 11
3536.043683173905
 21
1664.914090420367
 31
0.000000000001819
210
-0.0000000000000001
220
0.8164965809277259
230
0.5773502691896259
  0
SPLINE
  5
9E8
330
1F
100
AcDbEntity
  8
Model
100
AcDbSpline
210
-0.0000000000000065
220
0.0000000000000965
230
1.0
 70
     8
 71
     3
 72
    26
 73
    22
 74
     0
 42
0.000000001
 43
0.0000000001
 40
2.35619449019236
 40
2.35619449019236
 40
2.35619449019236
 40
2.35619449019236
 40
2.646519196984858
 40
2.646519196984858
 40
2.953917264476986
 40
2.953917264476986
 40
3.280172939013626
 40
3.280172939013626
 40
3.609012075577509
 40
3.609012075577509
 40
3.936388225107082
 40
3.936388225107082
 40
4.263122526106035
 40
4.263122526106035
 40
4.590570851592766
 40
4.590570851592766
 40
4.919458801660172
 40
4.919458801660172
 40
5.245132127304787
 40
5.245132127304787
 40
5.497787143782153
 40
5.497787143782153
 40
5.497787143782153
 40
5.497787143782153
 10
3526.543683173904
 20
1648.459607748463
 30
0.0000000000015916
 10
3526.035614937018
 20
1648.752941081796
 30
-0.0000000000002274
 10
3525.604213644711
 20
1649.175392929072
 30
0.0000000000013642
 10
3524.921850983411
 20
1650.240758916215
 30
0.000000000001819
 10
3524.680903683852
 20
1650.893733640529
 30
0.0000000000006821
 10
3524.410089302647
 20
1652.38399562904
 30
0.0000000000006821
 10
3524.393638470596
 20
1653.231178641888
 30
0.0000000000006821
 10
3524.594935318971
 20
1655.013923959105
 30
0.0000000000006821
 10
3524.814816557354
 20
1655.95008765455
 30
0.0000000000009095
 10
3525.464307173407
 20
1657.810967714893
 30
0.0000000000006821
 10
3525.892962857096
 20
1658.73535731386
 30
0.0000000000006821
 10
3526.915073547831
 20
1660.483728595981
 30
-0.0000000000002274
 10
3527.508007462529
 20
1661.307578172768
 30
0.0000000000006821
 10
3528.802916501856
 20
1662.77612144982
 30
0.0000000000004547
 10
3529.504821710921
 20
1663.420243957037
 30
0.0000000000002274
 10
3530.955450180155
 20
1664.462830485889
 30
0.0000000000011369
 10
3531.704217204605
 20
1664.860434508715
 30
0.0000000000009095
 10
3533.17524577851
 20
1665.352890105466
 30
0.0
 10
3533.899145919147
 20
1665.450605887643
 30
0.0
 10
3535.103563599439
 20
1665.325984552144
 30
0.0
 10
3535.601536895069
 20
1665.169363693474
 30
0.0000000000009095
 10
3536.043683173905
 20
1664.914090420367
 30
0.0000000000015916
  0
SPLINE
  5
9E9
330
1F
100
AcDbEntity
  8
Model
100
AcDbSpline
210
-0.0000000000001607
220
-0.0000000000000125
230
1.0
 70
     8
 71
     3
 72
    16
 73
    12
 74
     0
 42
0.000000001
 43
0.0000000001
 40
5.497787143782121
 40
5.497787143782121
 40
5.497787143782121
 40
5.497787143782121
 40
5.748217914523764
 40
5.748217914523764
 40
6.023458010494199
 40
6.023458010494199
 40
6.348561625474082
 40
6.348561625474082
 40
6.694854749801062
 40
6.694854749801062
 40
6.748256051685864
 40
6.748256051685864
 40
6.748256051685864
 40
6.748256051685864
 10
3506.256904570639
 20
1709.014851215558
 30
0.0000000000006821
 10
3506.966458421074
 20
1708.605190109006
 30
0.0
 10
3507.581480167329
 20
1708.039154722806
 30
0.0
 10
3508.594857634822
 20
1706.649660020298
 30
0.0
 10
3508.969793096364
 20
1705.811117622993
 30
-0.0000000000004547
 10
3509.487796905248
 20
1703.859254867656
 30
0.0000000000011369
 10
3509.580181931943
 20
1702.72022669976
 30
0.0000000000009095
 10
3509.446510423761
 20
1700.285460742598
 30
0.0000000000009095
 10
3509.197986096221
 20
1698.982650917133
 30
0.0000000000006821
 10
3508.733273092726
 20
1697.485345297181
 30
0.0000000000002274
 10
3508.667520981576
 20
1697.285448289483
 30
0.0000000000009095
 10
3508.598203488053
 20
1697.085913851226
 30
0.0000000000009095
  0
SPLINE
  5
9EA
330
1F
100
AcDbEntity
  8
Model
100
AcDbSpline
210
0.0000000000002072
220
-0.0000000000001434
230
1.0
 70
     8
 71
     3
 72
    14
 73
    10
 74
     0
 42
0.000000001
 43
0.0000000001
 40
7.388910889468256
 40
7.388910889468256
 40
7.388910889468256
 40
7.388910889468256
 40
7.722877520541079
 40
7.722877520541079
 40
8.069395120964072
 40
8.069395120964072
 40
8.400242188125616
 40
8.400242188125616
 40
8.639379797371915
 40
8.639379797371915
 40
8.639379797371915
 40
8.639379797371915
 10
3504.758316827011
 20
1690.435035058994
 30
-0.0000000000006821
 10
3503.894382815169
 20
1689.435674102119
 30
0.0000000000002274
 10
3502.948892638372
 20
1688.550472586959
 30
0.0000000000009095
 10
3500.918759183609
 20
1687.069267688403
 30
0.0000000000004547
 10
3499.83011444706
 20
1686.483555699467
 30
-0.0000000000002274
 10
3497.644354716255
 20
1685.773856945225
 30
0.0000000000009095
 10
3496.542553253757
 20
1685.630675087392
 30
0.0000000000013642
 10
3494.692587354825
 20
1685.861319895944
 30
0.0000000000006821
 10
3493.934461130171
 20
1686.107003255126
 30
0.0000000000002274
 10
3493.256904570639
 20
1686.498190717162
 30
0.0000000000011369
  0
LINE
  5
9EB
330
1F
100
AcDbEntity
  8
Model
100
AcDbLine
 10
3497.423338158262
 20
1688.711501317303
 30
0.0000000000013642
 11
3497.378224914198
 21
1688.737547460908
 31
0.0000000000006821
210
-0.0000000000000001
220
0.8164965809277259
230
0.5773502691896259
  0
LINE
  5
9EC
330
1F
100
AcDbEntity
  8
Model
100
AcDbLine
 10
3506.423338158265
 20
1704.299958585425
 30
0.0000000000002274
 11
3506.378224914199
 21
1704.326004729028
 31
0.0000000000006821
210
-0.0000000000000001
220
0.8164965809277259
230
0.5773502691896259
  0
SPLINE
  5
9ED
330
1F
100
AcDbEntity
  8
Model
100
AcDbSpline
210
0.0000000000000604
220
-0.0000000000000664
230
1.0
 70
     8
 71
     3
 72
    26
 73
    22
 74
     0
 42
0.000000001
 43
0.0000000001
 40
5.497787143782033
 40
5.497787143782033
 40
5.497787143782033
 40
5.497787143782033
 40
5.730008217801888
 40
5.730008217801888
 40
5.985532173205777
 40
5.985532173205777
 40
6.299580648716019
 40
6.299580648716019
 40
6.655429798055028
 40
6.655429798055028
 40
7.011895151712312
 40
7.011895151712312
 40
7.364383650575184
 40
7.364383650575184
 40
7.719039720807017
 40
7.719039720807017
 40
8.077657053426143
 40
8.077657053426143
 40
8.406886793988594
 40
8.406886793988594
 40
8.63937979737205
 40
8.63937979737205
 40
8.63937979737205
 40
8.63937979737205
 10
3506.423338158264
 20
1704.299958585424
 30
0.0000000000006821
 10
3506.92648381864
 20
1704.009467302964
 30
0.0000000000009095
 10
3507.367119256983
 20
1703.615885820183
 30
-0.0000000000002274
 10
3508.101526263243
 20
1702.66655077918
 30
0.0000000000006821
 10
3508.378661501143
 20
1702.10245789933
 30
0.0000000000006821
 10
3508.791086033057
 20
1700.788164004049
 30
0.0000000000006821
 10
3508.883229279022
 20
1700.022724871751
 30
0.0000000000009095
 10
3508.859749690639
 20
1698.355683149808
 30
0.0000000000002274
 10
3508.713877394805
 20
1697.447014520274
 30
0.0000000000002274
 10
3508.202805255294
 20
1695.640514028831
 30
0.0
 10
3507.836345427336
 20
1694.74300532395
 30
0.0000000000002274
 10
3506.928521437646
 20
1693.044473825796
 30
0.0000000000004547
 10
3506.3892890402
 20
1692.242948832936
 30
-0.0000000000011369
 10
3505.174247219924
 20
1690.793819850719
 30
0.0000000000004547
 10
3504.498269418907
 20
1690.147053765198
 30
0.0000000000009095
 10
3503.03921498352
 20
1689.075932014272
 30
0.0000000000004547
 10
3502.254697628006
 20
1688.651823508466
 30
0.0000000000006821
 10
3500.664717489943
 20
1688.151493513189
 30
0.0000000000004547
 10
3499.858745712464
 20
1688.050545284503
 30
0.0
 10
3498.488963650697
 20
1688.235776081416
 30
0.0000000000002274
 10
3497.927072998927
 20
1688.420669871446
 30
0.0000000000009095
 10
3497.423338158262
 20
1688.711501317303
 30
0.0000000000006821
  0
LINE
  5
9EE
330
1F
100
AcDbEntity
  8
Model
100
AcDbLine
 10
3493.256904570639
 20
1686.498190717163
 30
0.0
 11
3491.452799863838
 21
1687.539791055281
 31
-0.0000000000002274
210
-0.0000000000000001
220
0.8164965809277259
230
0.5773502691896259
  0
LINE
  5
9EF
330
1F
100
AcDbEntity
  8
Model
100
AcDbLine
 10
3506.256904570639
 20
1709.014851215557
 30
0.0000000000011369
 11
3504.452799863838
 21
1710.056451553675
 31
-0.0000000000006821
210
-0.0000000000000001
220
0.8164965809277259
230
0.5773502691896259
  0
LINE
  5
9F0
330
1F
100
AcDbEntity
  8
Model
100
AcDbLine
 10
3508.413217848732
 20
1856.290218852219
 30
-0.0000000000002274
 11
3503.463470380425
 21
1859.147956885466
 31
0.0000000000002274
210
-0.0000000000000001
220
0.8164965809277259
230
0.5773502691896259
  0
LINE
  5
9F1
330
1F
100
AcDbEntity
  8
Model
100
AcDbLine
 10
3458.517337343306
 20
1644.641437722913
 30
0.0000000000004547
 11
3437.173102478554
 21
1656.964537467724
 31
-0.0000000000002274
210
-0.0000000000000001
220
0.8164965809277259
230
0.5773502691896259
  0
SPLINE
  5
9F2
330
1F
100
AcDbEntity
  8
Model
100
AcDbSpline
210
0.0000000000032092
220
-0.0000000000050295
230
-1.0
 70
     8
 71
     3
 72
     8
 73
     4
 74
     0
 42
0.000000001
 43
0.0000000001
 40
1.46935662418122
 40
1.46935662418122
 40
1.46935662418122
 40
1.46935662418122
 40
1.492242253438179
 40
1.492242253438179
 40
1.492242253438179
 40
1.492242253438179
 10
3526.030103592014
 20
1677.726217267071
 30
-0.0000000000002274
 10
3524.096140587761
 20
1676.35657336882
 30
0.0000000000004547
 10
3522.13559134127
 20
1675.000103590916
 30
0.0000000000004547
 10
3520.148969989925
 20
1673.657128032932
 30
0.0000000000013642
  0
SPLINE
  5
9F3
330
1F
100
AcDbEntity
  8
Model
100
AcDbSpline
210
0.0000000000008494
220
-0.000000000001714
230
-1.0
 70
     8
 71
     3
 72
    12
 73
     8
 74
     0
 42
0.000000001
 43
0.0000000001
 40
1.5595901899477
 40
1.5595901899477
 40
1.5595901899477
 40
1.5595901899477
 40
1.591084267317635
 40
1.591084267317635
 40
1.631660148363106
 40
1.631660148363106
 40
1.672236029408579
 40
1.672236029408579
 40
1.672236029408579
 40
1.672236029408579
 10
3501.946389800043
 20
1662.15933583893
 30
-0.0000000000006821
 10
3499.007670110199
 20
1660.424206404191
 30
0.0000000000002274
 10
3496.02256734986
 20
1658.716354554319
 30
0.000000000001819
 10
3489.088772299364
 20
1654.872352115166
 30
0.0000000000009095
 10
3485.110435607543
 20
1652.754712957795
 30
0.0000000000011369
 10
3477.011101831577
 20
1648.615745776737
 30
-0.0000000000009095
 10
3472.890104954192
 20
1646.594417970914
 30
0.0
 10
3468.70111974948
 20
1644.622775944933
 30
0.0000000000011369
  0
SPLINE
  5
9F4
330
1F
100
AcDbEntity
  8
Model
100
AcDbSpline
210
-0.0000000000005617
220
0.000000000000307
230
1.0
 70
     8
 71
     3
 72
    16
 73
    12
 74
     0
 42
0.000000001
 43
0.0000000001
 40
0.0000000000000477
 40
0.0000000000000477
 40
0.0000000000000477
 40
0.0000000000000477
 40
3.151474447185732
 40
3.151474447185732
 40
6.302948894371417
 40
6.302948894371417
 40
9.454423341557101
 40
9.454423341557101
 40
12.60589778874279
 40
12.60589778874279
 40
15.75737223592847
 40
15.75737223592847
 40
15.75737223592847
 40
15.75737223592847
 10
3534.400520711083
 20
1694.522213083693
 30
0.0000000000002274
 10
3534.400520711083
 20
1693.267660402045
 30
0.0000000000013642
 10
3534.253979405036
 20
1692.005278876318
 30
-0.0000000000002274
 10
3533.728990612101
 20
1689.485727884968
 30
0.0000000000006821
 10
3533.348999685008
 20
1688.229269789493
 30
0.0000000000004547
 10
3532.386023291981
 20
1685.778637661882
 30
0.0000000000002274
 10
3531.803088724494
 20
1684.585383995257
 30
0.000000000001819
 10
3530.457922232512
 20
1682.328656666707
 30
-0.0000000000009095
 10
3529.696515609585
 20
1681.265529282636
 30
0.0000000000004547
 10
3528.00159290757
 20
1679.333168807797
 30
0.0
 10
3527.069416901349
 20
1678.462265024641
 30
0.0000000000006821
 10
3526.030103592014
 20
1677.726217267071
 30
0.0000000000006821
  0
SPLINE
  5
9F5
330
1F
100
AcDbEntity
  8
Model
100
AcDbSpline
210
0.0000000000000212
220
-0.0000000000006224
230
1.0
 70
     8
 71
     3
 72
    16
 73
    12
 74
     0
 42
0.000000001
 43
0.0000000001
 40
0.0
 40
0.0
 40
0.0
 40
0.0
 40
1.578592035844804
 40
1.578592035844804
 40
3.157184071689608
 40
3.157184071689608
 40
4.735776107534412
 40
4.735776107534412
 40
6.314368143379217
 40
6.314368143379217
 40
7.892960179224021
 40
7.892960179224021
 40
7.892960179224021
 40
7.892960179224021
 10
3468.70111974948
 20
1644.622775944933
 30
0.0000000000011369
 10
3468.085348670974
 20
1644.332949154567
 30
0.0000000000002274
 10
3467.44939798776
 20
1644.085320235464
 30
0.0000000000009095
 10
3466.140110202883
 20
1643.690525446642
 30
0.0
 10
3465.466582007485
 20
1643.543334626097
 30
0.0000000000002274
 10
3464.089339303336
 20
1643.370855847312
 30
0.0000000000009095
 10
3463.385351022918
 20
1643.345734361537
 30
0.0000000000004547
 10
3461.966285465309
 20
1643.442906763209
 30
0.0000000000006821
 10
3461.251050251173
 20
1643.565719716
 30
-0.0000000000002274
 10
3459.848683551697
 20
1643.978590747297
 30
0.0000000000009095
 10
3459.162053711304
 20
1644.269210554297
 30
0.0000000000004547
 10
3458.517337343307
 20
1644.641437722911
 30
0.0000000000013642
  0
LINE
  5
9F6
330
1F
100
AcDbEntity
  8
Model
100
AcDbLine
 10
3534.400520711083
 20
1829.244148936768
 30
0.0000000000004547
 11
3534.400520711083
 21
1694.522213083693
 31
0.0000000000002274
210
-0.0000000000000001
220
0.8164965809277259
230
0.5773502691896259
  0
SPLINE
  5
9F7
330
1F
100
AcDbEntity
  8
Model
100
AcDbSpline
210
0.0000000000008441
220
0.0000000000005715
230
-1.0
 70
     8
 71
     3
 72
    16
 73
    12
 74
     0
 42
0.000000001
 43
0.0000000001
 40
7.892786398515556
 40
7.892786398515556
 40
7.892786398515556
 40
7.892786398515556
 40
9.465702215326027
 40
9.465702215326027
 40
11.0386180321365
 40
11.0386180321365
 40
12.61153384894697
 40
12.61153384894697
 40
14.18444966575744
 40
14.18444966575744
 40
15.75736548256792
 40
15.75736548256792
 40
15.75736548256792
 40
15.75736548256792
 10
3530.085879838232
 20
1838.003998926629
 30
0.0000000000009095
 10
3530.761003815429
 20
1837.614215916658
 30
0.0000000000006821
 10
3531.366211202319
 20
1837.122287132571
 30
0.0000000000006821
 10
3532.381343139313
 20
1836.034373730551
 30
0.0
 10
3532.793144468294
 20
1835.440831076105
 30
0.0000000000004547
 10
3533.450541018569
 20
1834.227962697225
 30
0.0000000000015916
 10
3533.697931541095
 20
1833.607984649492
 30
0.0
 10
3534.072272366721
 20
1832.365686498958
 30
0.0000000000004547
 10
3534.199500287498
 20
1831.742514995047
 30
0.0000000000006821
 10
3534.363707652539
 20
1830.49500625952
 30
-0.0000000000006821
 10
3534.400520711083
 20
1829.870302119686
 30
0.0000000000002274
 10
3534.400520711083
 20
1829.244148936767
 30
-0.0000000000004547
  0
LINE
  5
9F8
330
1F
100
AcDbEntity
  8
Model
100
AcDbLine
 10
3431.844675353805
 20
1654.267403610657
 30
0.0000000000013642
 11
3426.8949278855
 21
1657.125141643905
 31
0.0
210
-0.0000000000000001
220
0.8164965809277259
230
0.5773502691896259
  0
SPLINE
  5
9F9
330
1F
100
AcDbEntity
  8
Model
100
AcDbSpline
210
-0.0000000000003863
220
-0.0000000000000517
230
1.0
 70
     8
 71
     3
 72
    16
 73
    12
 74
     0
 42
0.000000001
 43
0.0000000001
 40
5.497787143782157
 40
5.497787143782157
 40
5.497787143782157
 40
5.497787143782157
 40
5.654866776461642
 40
5.654866776461642
 40
5.811946409141127
 40
5.811946409141127
 40
5.969026041820613
 40
5.969026041820613
 40
6.126105674500098
 40
6.126105674500098
 40
6.189998749033643
 40
6.189998749033643
 40
6.189998749033643
 40
6.189998749033643
 10
3508.413217848732
 20
1856.290218852219
 30
-0.0000000000002274
 10
3509.041536379449
 20
1855.927458979371
 30
0.0000000000006821
 10
3509.619656438393
 20
1855.47857268878
 30
-0.0000000000002274
 10
3510.646178225948
 20
1854.439775060381
 30
0.0000000000004547
 10
3511.094679983904
 20
1853.850526297338
 30
0.0000000000006821
 10
3511.854974245348
 20
1852.56648270092
 30
0.0000000000009095
 10
3512.167209480959
 20
1851.871793836195
 30
0.0000000000004547
 10
3512.660895445608
 20
1850.402360978854
 30
0.0000000000011369
 10
3512.84255441985
 20
1849.627445182943
 30
0.0000000000004547
 10
3513.011444883051
 20
1848.493659520346
 30
0.0000000000004547
 10
3513.050083578764
 20
1848.160670891516
 30
0.0000000000004547
 10
3513.078747030364
 20
1847.823071631394
 30
0.0000000000011369
  0
SPLINE
  5
9FA
330
1F
100
AcDbEntity
  8
Model
100
AcDbSpline
210
0.0000000000000253
220
-0.0000000000000912
230
1.0
 70
     8
 71
     3
 72
    16
 73
    12
 74
     0
 42
0.000000001
 43
0.0000000001
 40
1.663982884940888
 40
1.663982884940888
 40
1.663982884940888
 40
1.663982884940888
 40
1.727875959474389
 40
1.727875959474389
 40
1.884955592153882
 40
1.884955592153882
 40
2.042035224833377
 40
2.042035224833377
 40
2.199114857512871
 40
2.199114857512871
 40
2.356194490192364
 40
2.356194490192364
 40
2.356194490192364
 40
2.356194490192364
 10
3441.510204535441
 20
1654.460510427678
 30
0.0000000000013642
 10
3441.203503274074
 20
1654.316534074862
 30
0.0
 10
3440.895807314482
 20
1654.183501852502
 30
0.0000000000006821
 10
3439.829474896624
 20
1653.762872452793
 30
-0.0000000000006821
 10
3439.067548644452
 20
1653.532735841356
 30
0.0000000000006821
 10
3437.548139478514
 20
1653.225563999565
 30
0.0000000000009095
 10
3436.790403656129
 20
1653.148623213196
 30
0.0000000000013642
 10
3435.298242151346
 20
1653.165035559752
 30
0.0000000000013642
 10
3434.563686874421
 20
1653.25882509426
 30
0.0000000000011369
 10
3433.150800845061
 20
1653.628420225623
 30
0.0000000000015916
 10
3432.472993884524
 20
1653.90464373781
 30
0.0
 10
3431.844675353805
 20
1654.267403610657
 30
0.0000000000015916
  0
LINE
  5
9FB
330
1F
100
AcDbEntity
  8
Model
100
AcDbLine
 10
3530.085879838227
 20
1838.00399892663
 30
-0.0000000000006821
 11
3508.741644973478
 21
1850.327098671441
 31
-0.0000000000002274
210
-0.0000000000000001
220
0.8164965809277259
230
0.5773502691896259
  0
SPLINE
  5
9FC
330
1F
100
AcDbEntity
  8
Model
100
AcDbSpline
210
0.0000000000000895
220
-0.0000000000000374
230
1.0
 70
     8
 71
     3
 72
    26
 73
    22
 74
     0
 42
0.000000001
 43
0.0000000001
 40
-46.06569691477917
 40
-46.06569691477917
 40
-46.06569691477917
 40
-46.06569691477917
 40
-41.7973494202145
 40
-41.7973494202145
 40
-38.28414730224281
 40
-38.28414730224281
 40
-34.73695466971123
 40
-34.73695466971123
 40
-31.08595561790987
 40
-31.08595561790987
 40
-27.42092150091675
 40
-27.42092150091675
 40
-23.78590048914034
 40
-23.78590048914034
 40
-20.23286314333507
 40
-20.23286314333507
 40
-16.81900668762322
 40
-16.81900668762322
 40
-13.4730151892716
 40
-13.4730151892716
 40
-13.36228580486408
 40
-13.36228580486408
 40
-13.36228580486408
 40
-13.36228580486408
 10
3492.154784221712
 20
1668.256733893285
 30
0.0000000000006821
 10
3491.931018215145
 20
1668.618874057745
 30
0.0000000000006821
 10
3491.721596941631
 20
1669.164593953396
 30
-0.0000000000002274
 10
3491.532482049778
 20
1670.505886197424
 30
0.0000000000002274
 10
3491.520748782129
 20
1671.22325724799
 30
-0.0000000000004547
 10
3491.693995302358
 20
1672.827158719854
 30
0.0000000000004547
 10
3491.882486654218
 20
1673.714598462137
 30
-0.0000000000009095
 10
3492.460577780851
 20
1675.543014653348
 30
0.0000000000006821
 10
3492.862339487614
 20
1676.506952529483
 30
-0.0000000000002274
 10
3493.840870876257
 20
1678.377820302291
 30
0.0000000000009095
 10
3494.413848194831
 20
1679.280469594986
 30
0.0000000000013642
 10
3495.677871595952
 20
1680.947008983343
 30
0.0000000000002274
 10
3496.356641327865
 20
1681.696206169059
 30
0.0000000000004547
 10
3497.725692291722
 20
1682.96203510772
 30
0.0000000000013642
 10
3498.418257324612
 20
1683.483057305697
 30
0.0000000000006821
 10
3499.678186496522
 20
1684.240435090955
 30
0.0000000000004547
 10
3500.258932111454
 20
1684.49304754619
 30
0.0000000000009095
 10
3501.227307477932
 20
1684.773806715609
 30
-0.0000000000006821
 10
3501.608754377725
 20
1684.80628265038
 30
0.0000000000004547
 10
3501.89536007094
 20
1684.787095511447
 30
0.0000000000009095
 10
3501.904432094094
 20
1684.786426424867
 30
0.0
 10
3501.913396308419
 20
1684.785705060784
 30
-0.0000000000002274
  0
SPLINE
  5
9FD
330
1F
100
AcDbEntity
  8
Model
100
AcDbSpline
210
0.0000000000001787
220
-0.0000000000000881
230
1.0
 70
     8
 71
     3
 72
    28
 73
    24
 74
     0
 42
0.000000001
 43
0.0000000001
 40
29.38369711467539
 40
29.38369711467539
 40
29.38369711467539
 40
29.38369711467539
 40
32.57711994438354
 40
32.57711994438354
 40
37.21812422884176
 40
37.21812422884176
 40
40.87396191550403
 40
40.87396191550403
 40
44.50337851767181
 40
44.50337851767181
 40
48.19137765103813
 40
48.19137765103813
 40
51.920258481448
 40
51.920258481448
 40
55.64249639154748
 40
55.64249639154748
 40
59.29867159359127
 40
59.29867159359127
 40
62.85623173491815
 40
62.85623173491815
 40
66.50529500748151
 40
66.50529500748151
 40
68.56197371920245
 40
68.56197371920245
 40
68.56197371920245
 40
68.56197371920245
 10
3491.452799863836
 20
1687.539791055279
 30
-0.0000000000002274
 10
3491.084585408174
 20
1687.752379770375
 30
0.0000000000011369
 10
3490.756728574222
 20
1688.042766333253
 30
0.0000000000009095
 10
3490.027342258726
 20
1689.04179811464
 30
0.0000000000011369
 10
3489.668053320269
 20
1689.897703073599
 30
-0.0000000000002274
 10
3489.362013974254
 20
1691.880961601124
 30
0.0000000000006821
 10
3489.345820146605
 20
1692.904084804913
 30
0.0000000000013642
 10
3489.601935967285
 20
1695.12187725828
 30
-0.0000000000006821
 10
3489.871379014245
 20
1696.313900685368
 30
0.0000000000004547
 10
3490.69000060393
 20
1698.760241636069
 30
0.0000000000004547
 10
3491.24323512193
 20
1700.015118746483
 30
0.0000000000009095
 10
3492.583125032301
 20
1702.449151833105
 30
0.0000000000006821
 10
3493.372104306329
 20
1703.627253472569
 30
0.0
 10
3495.089511108896
 20
1705.768340517522
 30
-0.0000000000004547
 10
3496.017409216921
 20
1706.731139338632
 30
0.0000000000006821
 10
3497.881170973967
 20
1708.332184608387
 30
0.0000000000009095
 10
3498.816348819916
 20
1708.974820119767
 30
0.0000000000006821
 10
3500.553395676053
 20
1709.895395627633
 30
0.0000000000006821
 10
3501.356564170035
 20
1710.18089620667
 30
0.0000000000015916
 10
3502.748975033121
 20
1710.451357105565
 30
-0.0000000000002274
 10
3503.323793935716
 20
1710.431758770417
 30
0.0000000000009095
 10
3504.031080521226
 20
1710.261854251389
 30
0.0000000000002274
 10
3504.250535559822
 20
1710.173228904047
 30
0.0000000000004547
 10
3504.452799863838
 20
1710.056451553675
 30
-0.0000000000006821
  0
LINE
  5
9FE
330
1F
100
AcDbEntity
  8
Model
100
AcDbLine
 10
2954.70763423259
 20
1749.953785143619
 30
0.0
 11
2959.707634232589
 21
1749.953785143619
 31
0.0
210
0.0
220
1.0
230
0.0
  0
ARC
  5
9FF
330
1F
100
AcDbEntity
  8
Model
100
AcDbCircle
 10
2957.20763423259
 20
1762.67725550063
 30
0.0
 40
9.889257892830755
100
AcDbArc
 50
284.6432375152401
 51
180.0
  0
ARC
  5
A00
330
1F
100
AcDbEntity
  8
Model
100
AcDbCircle
 10
2957.20763423259
 20
1762.67725550063
 30
0.0
 40
9.889257892830755
100
AcDbArc
 50
180.0
 51
255.3567624847599
  0
ARC
  5
A01
330
1F
100
AcDbEntity
  8
Model
100
AcDbCircle
 10
2957.20763423259
 20
1762.67725550063
 30
0.0
 40
10.0
100
AcDbArc
 50
180.0
 51
255.5224878140701
  0
ARC
  5
A02
330
1F
100
AcDbEntity
  8
Model
100
AcDbCircle
 10
2957.20763423259
 20
1762.67725550063
 30
0.0
 40
10.0
100
AcDbArc
 50
284.4775121859299
 51
180.0
  0
CIRCLE
  5
A03
330
1F
100
AcDbEntity
  8
Model
100
AcDbCircle
 10
2957.20763423259
 20
1762.67725550063
 30
0.0
 40
9.0
  0
CIRCLE
  5
A04
330
1F
100
AcDbEntity
  8
Model
100
AcDbCircle
 10
2957.20763423259
 20
1762.67725550063
 30
0.0
 40
9.5
  0
CIRCLE
  5
A05
330
1F
100
AcDbEntity
  8
Model
100
AcDbCircle
 10
2957.20763423259
 20
1790.67725550063
 30
0.0
 40
11.00000000000022
  0
CIRCLE
  5
A06
330
1F
100
AcDbEntity
  8
Model
100
AcDbCircle
 10
2957.20763423259
 20
1790.67725550063
 30
0.0
 40
10.00000000000023
  0
CIRCLE
  5
A07
330
1F
100
AcDbEntity
  8
Model
100
AcDbCircle
 10
2957.20763423259
 20
1790.67725550063
 30
0.0
 40
9.000000000000227
  0
CIRCLE
  5
A08
330
1F
100
AcDbEntity
  8
Model
100
AcDbCircle
 10
2957.20763423259
 20
1790.67725550063
 30
0.0
 40
7.576864024314772
  0
CIRCLE
  5
A09
330
1F
100
AcDbEntity
  8
Model
100
AcDbCircle
 10
2957.20763423259
 20
1790.67725550063
 30
0.0
 40
13.00000000000023
  0
LINE
  5
A0A
330
1F
100
AcDbEntity
  8
Model
100
AcDbLine
 10
2917.207634232591
 20
1742.67725550063
 30
0.0
 11
2997.207634232591
 21
1742.67725550063
 31
0.0
210
0.0
220
1.0
230
0.0
  0
SPLINE
  5
A0B
330
1F
100
AcDbEntity
  8
Model
100
AcDbSpline
210
0.0
220
0.0
230
1.0
 70
     8
 71
     3
 72
    20
 73
    16
 74
     0
 42
0.000000001
 43
0.0000000001
 40
0.0000000000000477
 40
0.0000000000000477
 40
0.0000000000000477
 40
0.0000000000000477
 40
1.931285850202377
 40
1.931285850202377
 40
4.699173704916666
 40
4.699173704916666
 40
6.219168920210021
 40
6.219168920210021
 40
9.314834574411351
 40
9.314834574411351
 40
11.64852548138308
 40
11.64852548138308
 40
14.61089070080352
 40
14.61089070080352
 40
15.75737223592847
 40
15.75737223592847
 40
15.75737223592847
 40
15.75737223592847
 10
3012.207634232589
 20
1757.67725550063
 30
0.0
 10
3012.207634232589
 20
1756.711612575529
 30
0.0
 10
3012.114076569372
 20
1755.74592244421
 30
0.0
 10
3011.663235831398
 20
1753.440503165921
 30
0.0
 10
3011.208757693089
 20
1752.120466936842
 30
0.0
 10
3010.239922771702
 20
1750.211650406613
 30
0.0
 10
3009.845177195312
 20
1749.561390664642
 30
0.0
 10
3008.50497847154
 20
1747.689562543764
 30
0.0
 10
3007.412059319987
 20
1746.575683485725
 30
0.0
 10
3005.245508487409
 20
1744.959456860877
 30
0.0
 10
3004.233798398104
 20
1744.373860887783
 30
0.0
 10
3001.816587621326
 20
1743.327046114463
 30
0.0
 10
3000.378272073666
 20
1742.942348054462
 30
0.0
 10
2998.34813666822
 20
1742.709812656759
 30
0.0
 10
2997.777928200786
 20
1742.67725550063
 30
0.0
 10
2997.207634232589
 20
1742.67725550063
 30
0.0
  0
ELLIPSE
  5
A0C
330
1F
100
AcDbEntity
  8
Model
100
AcDbEllipse
 10
2997.207634232589
 20
1747.67725550063
 30
0.0
 11
0.0
 21
-5.00000000000009
 31
0.0
210
0.0
220
0.0
230
1.0
 40
0.101265822784806
 41
0.0
 42
1.570796326794896
  0
ELLIPSE
  5
A0D
330
1F
100
AcDbEntity
  8
Model
100
AcDbEllipse
 10
2917.20763423259
 20
1747.67725550063
 30
0.0
 11
0.0
 21
-5.0
 31
0.0
210
0.0
220
0.0
230
1.0
 40
0.1012658227848014
 41
4.712388980384688
 42
6.283185307179585
  0
SPLINE
  5
A0E
330
1F
100
AcDbEntity
  8
Model
100
AcDbSpline
210
0.0
220
0.0
230
1.0
 70
     8
 71
     3
 72
    18
 73
    14
 74
     0
 42
0.000000001
 43
0.0000000001
 40
0.0
 40
0.0
 40
0.0
 40
0.0
 40
0.7369010769935449
 40
0.7369010769935449
 40
4.108846754545413
 40
4.108846754545413
 40
6.799231967542906
 40
6.799231967542906
 40
9.704492483000603
 40
9.704492483000603
 40
12.8187022561587
 40
12.8187022561587
 40
15.75737223592844
 40
15.75737223592844
 40
15.75737223592844
 40
15.75737223592844
 10
2917.20763423259
 20
1742.677255500629
 30
0.0
 10
2916.841077749567
 20
1742.677255500629
 30
0.0
 10
2916.474556706235
 20
1742.690697573195
 30
0.0
 10
2914.436505590696
 20
1742.840365270085
 30
0.0
 10
2912.785620384095
 20
1743.246088725754
 30
0.0
 10
2910.01866867299
 20
1744.444364836419
 30
0.0
 10
2908.861853746032
 20
1745.141605118307
 30
0.0
 10
2906.689147149677
 20
1746.885864568551
 30
0.0
 10
2905.692262190701
 20
1747.956328173703
 30
0.0
 10
2903.98499787717
 20
1750.426388455575
 30
0.0
 10
2903.301122198606
 20
1751.843692690098
 30
0.0
 10
2902.425190706926
 20
1754.738616604575
 30
0.0
 10
2902.207634232589
 20
1756.207920510746
 30
0.0
 10
2902.207634232589
 20
1757.67725550063
 30
0.0
  0
LINE
  5
A0F
330
1F
100
AcDbEntity
  8
Model
100
AcDbLine
 10
3007.840545624996
 20
1757.67725550063
 30
0.0
 11
3012.207634232589
 21
1757.67725550063
 31
0.0
210
0.0
220
1.0
230
0.0
  0
LINE
  5
A10
330
1F
100
AcDbEntity
  8
Model
100
AcDbLine
 10
2902.207634232589
 20
1922.67725550063
 30
0.0
 11
2902.207634232589
 21
1757.67725550063
 31
0.0
210
0.0
220
1.0
230
0.0
  0
LINE
  5
A11
330
1F
100
AcDbEntity
  8
Model
100
AcDbLine
 10
2902.207634232589
 20
1757.67725550063
 30
0.0
 11
2906.574722840184
 21
1757.67725550063
 31
0.0
210
0.0
220
1.0
230
0.0
  0
LINE
  5
A12
330
1F
100
AcDbEntity
  8
Model
100
AcDbLine
 10
3007.840545624996
 20
1922.67725550063
 30
0.0
 11
3012.207634232589
 21
1922.67725550063
 31
0.0
210
0.0
220
1.0
230
0.0
  0
LINE
  5
A13
330
1F
100
AcDbEntity
  8
Model
100
AcDbLine
 10
2902.207634232589
 20
1922.67725550063
 30
0.0
 11
2906.574722840187
 21
1922.67725550063
 31
0.0
210
0.0
220
1.0
230
0.0
  0
ELLIPSE
  5
A14
330
1F
100
AcDbEntity
  8
Model
100
AcDbEllipse
 10
2997.207634232589
 20
1932.67725550063
 30
0.0
 11
-0.0000000000000229
 21
5.00000000000009
 31
0.0
210
0.0
220
0.0
230
1.0
 40
0.101265822784806
 41
4.712388980384688
 42
6.28318530717954
  0
ELLIPSE
  5
A15
330
1F
100
AcDbEntity
  8
Model
100
AcDbEllipse
 10
2917.20763423259
 20
1932.67725550063
 30
0.0
 11
0.0
 21
5.0
 31
0.0
210
0.0
220
0.0
230
1.0
 40
0.101265822784806
 41
0.0
 42
1.570796326794896
  0
ARC
  5
A16
330
1F
100
AcDbEntity
  8
Model
100
AcDbCircle
 10
2997.207634232589
 20
1757.67725550063
 30
0.0
 40
20.0
100
AcDbArc
 50
270.0
 51
0.0
  0
LINE
  5
A17
330
1F
100
AcDbEntity
  8
Model
100
AcDbLine
 10
3017.20763423259
 20
1757.67725550063
 30
0.0
 11
3017.20763423259
 21
1922.67725550063
 31
0.0
210
0.0
220
1.0
230
0.0
  0
LINE
  5
A18
330
1F
100
AcDbEntity
  8
Model
100
AcDbLine
 10
3015.207634232589
 20
1757.67725550063
 30
0.0
 11
3017.20763423259
 21
1757.67725550063
 31
0.0
210
0.0
220
1.0
230
0.0
  0
LINE
  5
A19
330
1F
100
AcDbEntity
  8
Model
100
AcDbLine
 10
2917.20763423259
 20
1737.67725550063
 30
0.0
 11
2997.207634232589
 21
1737.67725550063
 31
0.0
210
0.0
220
1.0
230
0.0
  0
LINE
  5
A1A
330
1F
100
AcDbEntity
  8
Model
100
AcDbLine
 10
2997.207634232589
 20
1737.67725550063
 30
0.0
 11
2997.207634232589
 21
1739.67725550063
 31
0.0
210
0.0
220
1.0
230
0.0
  0
ARC
  5
A1B
330
1F
100
AcDbEntity
  8
Model
100
AcDbCircle
 10
2997.207634232589
 20
1922.67725550063
 30
0.0
 40
20.0
100
AcDbArc
 50
0.0
 51
90.0
  0
LINE
  5
A1C
330
1F
100
AcDbEntity
  8
Model
100
AcDbLine
 10
3015.207634232589
 20
1922.67725550063
 30
0.0
 11
3017.20763423259
 21
1922.67725550063
 31
0.0
210
0.0
220
1.0
230
0.0
  0
ARC
  5
A1D
330
1F
100
AcDbEntity
  8
Model
100
AcDbCircle
 10
2917.20763423259
 20
1757.67725550063
 30
0.0
 40
20.0
100
AcDbArc
 50
180.0
 51
270.0
  0
LINE
  5
A1E
330
1F
100
AcDbEntity
  8
Model
100
AcDbLine
 10
2917.20763423259
 20
1737.67725550063
 30
0.0
 11
2917.20763423259
 21
1739.67725550063
 31
0.0
210
0.0
220
1.0
230
0.0
  0
LINE
  5
A1F
330
1F
100
AcDbEntity
  8
Model
100
AcDbLine
 10
2997.207634232589
 20
1942.67725550063
 30
0.0
 11
2917.20763423259
 21
1942.67725550063
 31
0.0
210
0.0
220
1.0
230
0.0
  0
LINE
  5
A20
330
1F
100
AcDbEntity
  8
Model
100
AcDbLine
 10
2997.207634232589
 20
1940.67725550063
 30
0.0
 11
2997.207634232589
 21
1942.67725550063
 31
0.0
210
0.0
220
1.0
230
0.0
  0
LINE
  5
A21
330
1F
100
AcDbEntity
  8
Model
100
AcDbLine
 10
2897.207634232589
 20
1922.67725550063
 30
0.0
 11
2897.207634232589
 21
1757.67725550063
 31
0.0
210
0.0
220
1.0
230
0.0
  0
LINE
  5
A22
330
1F
100
AcDbEntity
  8
Model
100
AcDbLine
 10
2897.207634232589
 20
1757.67725550063
 30
0.0
 11
2899.20763423259
 21
1757.67725550063
 31
0.0
210
0.0
220
1.0
230
0.0
  0
ARC
  5
A23
330
1F
100
AcDbEntity
  8
Model
100
AcDbCircle
 10
2917.20763423259
 20
1922.67725550063
 30
0.0
 40
20.0
100
AcDbArc
 50
90.0
 51
180.0
  0
LINE
  5
A24
330
1F
100
AcDbEntity
  8
Model
100
AcDbLine
 10
2917.20763423259
 20
1940.67725550063
 30
0.0
 11
2917.20763423259
 21
1942.67725550063
 31
0.0
210
0.0
220
1.0
230
0.0
  0
LINE
  5
A25
330
1F
100
AcDbEntity
  8
Model
100
AcDbLine
 10
2897.207634232589
 20
1922.67725550063
 30
0.0
 11
2899.20763423259
 21
1922.67725550063
 31
0.0
210
0.0
220
1.0
230
0.0
  0
LINE
  5
A26
330
1F
100
AcDbEntity
  8
Model
100
AcDbLine
 10
2917.20763423259
 20
1940.67725550063
 30
0.0
 11
2997.207634232589
 21
1940.67725550063
 31
0.0
210
0.0
220
1.0
230
0.0
  0
ARC
  5
A27
330
1F
100
AcDbEntity
  8
Model
100
AcDbCircle
 10
2997.207634232589
 20
1922.67725550063
 30
0.0
 40
18.0
100
AcDbArc
 50
0.0
 51
90.0
  0
LINE
  5
A28
330
1F
100
AcDbEntity
  8
Model
100
AcDbLine
 10
3015.207634232589
 20
1922.67725550063
 30
0.0
 11
3015.207634232589
 21
1757.67725550063
 31
0.0
210
0.0
220
1.0
230
0.0
  0
ARC
  5
A29
330
1F
100
AcDbEntity
  8
Model
100
AcDbCircle
 10
2997.207634232589
 20
1757.67725550063
 30
0.0
 40
18.0
100
AcDbArc
 50
270.0
 51
0.0
  0
LINE
  5
A2A
330
1F
100
AcDbEntity
  8
Model
100
AcDbLine
 10
2997.207634232589
 20
1739.67725550063
 30
0.0
 11
2917.20763423259
 21
1739.67725550063
 31
0.0
210
0.0
220
1.0
230
0.0
  0
ARC
  5
A2B
330
1F
100
AcDbEntity
  8
Model
100
AcDbCircle
 10
2917.20763423259
 20
1757.67725550063
 30
0.0
 40
18.0
100
AcDbArc
 50
180.0
 51
270.0
  0
LINE
  5
A2C
330
1F
100
AcDbEntity
  8
Model
100
AcDbLine
 10
2899.20763423259
 20
1757.67725550063
 30
0.0
 11
2899.20763423259
 21
1922.67725550063
 31
0.0
210
0.0
220
1.0
230
0.0
  0
ARC
  5
A2D
330
1F
100
AcDbEntity
  8
Model
100
AcDbCircle
 10
2917.20763423259
 20
1922.67725550063
 30
0.0
 40
18.0
100
AcDbArc
 50
90.0
 51
180.0
  0
SPLINE
  5
A2E
330
1F
100
AcDbEntity
  8
Model
100
AcDbSpline
210
0.0
220
0.0
230
1.0
 70
     8
 71
     3
 72
    16
 73
    12
 74
     0
 42
0.000000001
 43
0.0000000001
 40
0.0
 40
0.0
 40
0.0
 40
0.0
 40
3.318095753297203
 40
3.318095753297203
 40
6.581226467333607
 40
6.581226467333607
 40
9.5263566159946
 40
9.5263566159946
 40
12.73537081078735
 40
12.73537081078735
 40
15.75736548256709
 40
15.75736548256709
 40
15.75736548256709
 40
15.75736548256709
 10
2902.207634232589
 20
1922.67725550063
 30
0.0
 10
2902.207634232589
 20
1924.336303377278
 30
0.0
 10
2902.485517211003
 20
1925.994948559155
 30
0.0
 10
2903.556255571594
 20
1929.103560429106
 30
0.0
 10
2904.340126269855
 20
1930.556014825313
 30
0.0
 10
2906.2319687038
 20
1933.006412647233
 30
0.0
 10
2907.3001734972
 20
1934.034703269201
 30
0.0
 10
2909.793712095315
 20
1935.814438799706
 30
0.0
 10
2911.241987173172
 20
1936.532143148147
 30
0.0
 10
2914.201807995686
 20
1937.449650596531
 30
0.0
 10
2915.704404324009
 20
1937.67725550063
 30
0.0
 10
2917.20763423259
 20
1937.67725550063
 30
0.0
  0
LINE
  5
A2F
330
1F
100
AcDbEntity
  8
Model
100
AcDbLine
 10
2997.207634232591
 20
1937.67725550063
 30
0.0
 11
2917.207634232591
 21
1937.67725550063
 31
0.0
210
0.0
220
1.0
230
0.0
  0
SPLINE
  5
A30
330
1F
100
AcDbEntity
  8
Model
100
AcDbSpline
210
0.0
220
0.0
230
1.0
 70
     8
 71
     3
 72
    18
 73
    14
 74
     0
 42
0.000000001
 43
0.0000000001
 40
0.0
 40
0.0
 40
0.0
 40
0.0
 40
1.966311565827654
 40
1.966311565827654
 40
4.819922022796998
 40
4.819922022796998
 40
7.868401704087887
 40
7.868401704087887
 40
9.825614111988896
 40
9.825614111988896
 40
13.19784412298634
 40
13.19784412298634
 40
15.75736548256792
 40
15.75736548256792
 40
15.75736548256792
 40
15.75736548256792
 10
2997.207634232589
 20
1937.67725550063
 30
0.0
 10
2998.185736008525
 20
1937.67725550063
 30
0.0
 10
2999.163613775253
 20
1937.581295556692
 30
0.0
 10
3001.514957946581
 20
1937.115433387596
 30
0.0
 10
3002.867313540881
 20
1936.640903851208
 30
0.0
 10
3005.472528571294
 20
1935.286443796832
 30
0.0
 10
3006.711903635167
 20
1934.380908260527
 30
0.0
 10
3008.47959711804
 20
1932.62178396357
 30
0.0
 10
3009.1039242965
 20
1931.865922968342
 30
0.0
 10
3010.589024765491
 20
1929.660698664992
 30
0.0
 10
3011.292560067097
 20
1928.10449806006
 30
0.0
 10
3012.042914442484
 20
1925.23666671801
 30
0.0
 10
3012.207634232589
 20
1923.95701618042
 30
0.0
 10
3012.207634232589
 20
1922.67725550063
 30
0.0
  0
LINE
  5
A31
330
1F
100
AcDbEntity
  8
Model
100
AcDbLine
 10
3012.207634232589
 20
1757.67725550063
 30
0.0
 11
3012.207634232589
 21
1922.67725550063
 31
0.0
210
0.0
220
1.0
230
0.0
  0
ARC
  5
A32
330
1F
100
AcDbEntity
  8
Model
100
AcDbCircle
 10
2997.207634232589
 20
1757.67725550063
 30
0.0
 40
17.0
100
AcDbArc
 50
270.0
 51
0.0
  0
LINE
  5
A33
330
1F
100
AcDbEntity
  8
Model
100
AcDbLine
 10
3014.207634232589
 20
1757.67725550063
 30
0.0
 11
3014.207634232589
 21
1922.67725550063
 31
0.0
210
0.0
220
1.0
230
0.0
  0
LINE
  5
A34
330
1F
100
AcDbEntity
  8
Model
100
AcDbLine
 10
3012.207634232589
 20
1757.67725550063
 30
0.0
 11
3014.207634232589
 21
1757.67725550063
 31
0.0
210
0.0
220
1.0
230
0.0
  0
LINE
  5
A35
330
1F
100
AcDbEntity
  8
Model
100
AcDbLine
 10
2917.20763423259
 20
1740.67725550063
 30
0.0
 11
2997.207634232589
 21
1740.67725550063
 31
0.0
210
0.0
220
1.0
230
0.0
  0
LINE
  5
A36
330
1F
100
AcDbEntity
  8
Model
100
AcDbLine
 10
2997.207634232589
 20
1740.67725550063
 30
0.0
 11
2997.207634232589
 21
1742.67725550063
 31
0.0
210
0.0
220
1.0
230
0.0
  0
ARC
  5
A37
330
1F
100
AcDbEntity
  8
Model
100
AcDbCircle
 10
2997.207634232589
 20
1922.67725550063
 30
0.0
 40
17.0
100
AcDbArc
 50
0.0
 51
90.0
  0
LINE
  5
A38
330
1F
100
AcDbEntity
  8
Model
100
AcDbLine
 10
3012.207634232589
 20
1922.67725550063
 30
0.0
 11
3014.207634232589
 21
1922.67725550063
 31
0.0
210
0.0
220
1.0
230
0.0
  0
ARC
  5
A39
330
1F
100
AcDbEntity
  8
Model
100
AcDbCircle
 10
2917.20763423259
 20
1757.67725550063
 30
0.0
 40
17.0
100
AcDbArc
 50
180.0
 51
270.0
  0
LINE
  5
A3A
330
1F
100
AcDbEntity
  8
Model
100
AcDbLine
 10
2917.20763423259
 20
1740.67725550063
 30
0.0
 11
2917.20763423259
 21
1742.67725550063
 31
0.0
210
0.0
220
1.0
230
0.0
  0
LINE
  5
A3B
330
1F
100
AcDbEntity
  8
Model
100
AcDbLine
 10
2997.207634232589
 20
1939.67725550063
 30
0.0
 11
2917.20763423259
 21
1939.67725550063
 31
0.0
210
0.0
220
1.0
230
0.0
  0
LINE
  5
A3C
330
1F
100
AcDbEntity
  8
Model
100
AcDbLine
 10
2997.207634232589
 20
1937.67725550063
 30
0.0
 11
2997.207634232589
 21
1939.67725550063
 31
0.0
210
0.0
220
1.0
230
0.0
  0
LINE
  5
A3D
330
1F
100
AcDbEntity
  8
Model
100
AcDbLine
 10
2900.20763423259
 20
1922.67725550063
 30
0.0
 11
2900.20763423259
 21
1757.67725550063
 31
0.0
210
0.0
220
1.0
230
0.0
  0
LINE
  5
A3E
330
1F
100
AcDbEntity
  8
Model
100
AcDbLine
 10
2900.20763423259
 20
1757.67725550063
 30
0.0
 11
2902.207634232589
 21
1757.67725550063
 31
0.0
210
0.0
220
1.0
230
0.0
  0
ARC
  5
A3F
330
1F
100
AcDbEntity
  8
Model
100
AcDbCircle
 10
2917.20763423259
 20
1922.67725550063
 30
0.0
 40
17.0
100
AcDbArc
 50
90.0
 51
180.0
  0
LINE
  5
A40
330
1F
100
AcDbEntity
  8
Model
100
AcDbLine
 10
2917.20763423259
 20
1937.67725550063
 30
0.0
 11
2917.20763423259
 21
1939.67725550063
 31
0.0
210
0.0
220
1.0
230
0.0
  0
LINE
  5
A41
330
1F
100
AcDbEntity
  8
Model
100
AcDbLine
 10
2900.20763423259
 20
1922.67725550063
 30
0.0
 11
2902.207634232589
 21
1922.67725550063
 31
0.0
210
0.0
220
1.0
230
0.0
  0
SPLINE
  5
A42
330
1F
100
AcDbEntity
  8
Model
100
AcDbSpline
210
0.0
220
0.0
230
1.0
 70
     8
 71
     3
 72
    18
 73
    14
 74
     0
 42
0.000000001
 43
0.0000000001
 40
0.0
 40
0.0
 40
0.0
 40
0.0
 40
1.966311565827654
 40
1.966311565827654
 40
4.819922022796998
 40
4.819922022796998
 40
7.868401704087887
 40
7.868401704087887
 40
9.825614111988896
 40
9.825614111988896
 40
13.19784412298634
 40
13.19784412298634
 40
15.75736548256792
 40
15.75736548256792
 40
15.75736548256792
 40
15.75736548256792
 10
2997.713963346514
 20
1932.67725550063
 30
0.0
 10
2998.374285220565
 20
1932.67725550063
 30
0.0
 10
2999.034455864766
 20
1932.613282204673
 30
0.0
 10
3000.621861212499
 20
1932.302707425273
 30
0.0
 10
3001.534843892196
 20
1931.986354401016
 30
0.0
 10
3003.293638849437
 20
1931.083381031431
 30
0.0
 10
3004.130347753317
 20
1930.479690673896
 30
0.0
 10
3005.323727319813
 20
1929.306941142591
 30
0.0
 10
3005.745214022571
 20
1928.803033812439
 30
0.0
 10
3006.747813495308
 20
1927.33288427687
 30
0.0
 10
3007.222774036477
 20
1926.295417206917
 30
0.0
 10
3007.729342391167
 20
1924.38352964555
 30
0.0
 10
3007.840545624996
 20
1923.530429287157
 30
0.0
 10
3007.840545624996
 20
1922.67725550063
 30
0.0
  0
LINE
  5
A43
330
1F
100
AcDbEntity
  8
Model
100
AcDbLine
 10
3007.840545624996
 20
1922.67725550063
 30
0.0
 11
3007.840545624996
 21
1757.67725550063
 31
0.0
210
0.0
220
1.0
230
0.0
  0
SPLINE
  5
A44
330
1F
100
AcDbEntity
  8
Model
100
AcDbSpline
210
0.0
220
0.0
230
1.0
 70
     8
 71
     3
 72
    20
 73
    16
 74
     0
 42
0.000000001
 43
0.0000000001
 40
0.0000000000000477
 40
0.0000000000000477
 40
0.0000000000000477
 40
0.0000000000000477
 40
1.931285850202377
 40
1.931285850202377
 40
4.699173704916666
 40
4.699173704916666
 40
6.219168920210021
 40
6.219168920210021
 40
9.314834574411351
 40
9.314834574411351
 40
11.64852548138308
 40
11.64852548138308
 40
14.61089070080352
 40
14.61089070080352
 40
15.75737223592847
 40
15.75737223592847
 40
15.75737223592847
 40
15.75737223592847
 10
3007.840545624996
 20
1757.67725550063
 30
0.0
 10
3007.840545624996
 20
1757.033493550562
 30
0.0
 10
3007.77738433337
 20
1756.389700129683
 30
0.0
 10
3007.473019278199
 20
1754.852753944157
 30
0.0
 10
3007.166198594106
 20
1753.972729791439
 30
0.0
 10
3006.512132824396
 20
1752.700185437952
 30
0.0
 10
3006.245637920502
 20
1752.266678943304
 30
0.0
 10
3005.340862410784
 20
1751.018793529385
 30
0.0
 10
3004.603026696655
 20
1750.276207490693
 30
0.0
 10
3003.140376345546
 20
1749.198723074127
 30
0.0
 10
3002.457365314794
 20
1748.808325758733
 30
0.0
 10
3000.825493060429
 20
1748.110449243184
 30
0.0
 10
2999.854478344709
 20
1747.853983869851
 30
0.0
 10
2998.483922796726
 20
1747.698960271383
 30
0.0
 10
2998.098971932638
 20
1747.67725550063
 30
0.0
 10
2997.713963346514
 20
1747.67725550063
 30
0.0
  0
LINE
  5
A45
330
1F
100
AcDbEntity
  8
Model
100
AcDbLine
 10
2997.713963346514
 20
1747.67725550063
 30
0.0
 11
2916.701305118668
 21
1747.67725550063
 31
0.0
210
0.0
220
1.0
230
0.0
  0
SPLINE
  5
A46
330
1F
100
AcDbEntity
  8
Model
100
AcDbSpline
210
0.0
220
0.0
230
1.0
 70
     8
 71
     3
 72
    18
 73
    14
 74
     0
 42
0.000000001
 43
0.0000000001
 40
0.0
 40
0.0
 40
0.0
 40
0.0
 40
0.7369010769935449
 40
0.7369010769935449
 40
4.108846754545413
 40
4.108846754545413
 40
6.799231967542906
 40
6.799231967542906
 40
9.704492483000603
 40
9.704492483000603
 40
12.8187022561587
 40
12.8187022561587
 40
15.75737223592844
 40
15.75737223592844
 40
15.75737223592844
 40
15.75737223592844
 10
2916.701305118665
 20
1747.67725550063
 30
0.0
 10
2916.45384082633
 20
1747.67725550063
 30
0.0
 10
2916.206400459523
 20
1747.68621688234
 30
0.0
 10
2914.830500972238
 20
1747.785995346933
 30
0.0
 10
2913.715979313776
 20
1748.056477650713
 30
0.0
 10
2911.847995036234
 20
1748.855328391156
 30
0.0
 10
2911.067022933649
 20
1749.320155245748
 30
0.0
 10
2909.600216792648
 20
1750.482994879244
 30
0.0
 10
2908.927214288698
 20
1751.196637282678
 30
0.0
 10
2907.774630785892
 20
1752.843344137259
 30
0.0
 10
2907.312942564079
 20
1753.788213626942
 30
0.0
 10
2906.721596409358
 20
1755.718162903259
 30
0.0
 10
2906.574722840184
 20
1756.697698840707
 30
0.0
 10
2906.574722840184
 20
1757.67725550063
 30
0.0
  0
LINE
  5
A47
330
1F
100
AcDbEntity
  8
Model
100
AcDbLine
 10
2906.574722840184
 20
1757.67725550063
 30
0.0
 11
2906.574722840184
 21
1922.67725550063
 31
0.0
210
0.0
220
1.0
230
0.0
  0
SPLINE
  5
A48
330
1F
100
AcDbEntity
  8
Model
100
AcDbSpline
210
0.0
220
0.0
230
1.0
 70
     8
 71
     3
 72
    16
 73
    12
 74
     0
 42
0.000000001
 43
0.0000000001
 40
0.0
 40
0.0
 40
0.0
 40
0.0
 40
3.318095753297203
 40
3.318095753297203
 40
6.581226467333607
 40
6.581226467333607
 40
9.5263566159946
 40
9.5263566159946
 40
12.73537081078735
 40
12.73537081078735
 40
15.75736548256709
 40
15.75736548256709
 40
15.75736548256709
 40
15.75736548256709
 10
2906.574722840184
 20
1922.67725550063
 30
0.0
 10
2906.574722840184
 20
1923.783287418395
 30
0.0
 10
2906.762323163162
 20
1924.889050872979
 30
0.0
 10
2907.485184503647
 20
1926.961458786281
 30
0.0
 10
2908.014379911757
 20
1927.929761717086
 30
0.0
 10
2909.291573116105
 20
1929.563360265031
 30
0.0
 10
2910.012724031482
 20
1930.248887346344
 30
0.0
 10
2911.696125616708
 20
1931.435377700015
 30
0.0
 10
2912.673864065895
 20
1931.913847265641
 30
0.0
 10
2914.672055338479
 20
1932.525518897898
 30
0.0
 10
2915.686466361817
 20
1932.67725550063
 30
0.0
 10
2916.701305118665
 20
1932.67725550063
 30
0.0
  0
LINE
  5
A49
330
1F
100
AcDbEntity
  8
Model
100
AcDbLine
 10
2916.701305118668
 20
1932.67725550063
 30
0.0
 11
2997.713963346517
 21
1932.67725550063
 31
0.0
210
0.0
220
1.0
230
0.0
  0
SPLINE
  5
A4A
330
1F
100
AcDbEntity
  8
Model
100
AcDbSpline
210
0.0
220
0.0
230
1.0
 70
     8
 71
     3
 72
    24
 73
    20
 74
     0
 42
0.000000001
 43
0.0000000001
 40
-17.83189997569754
 40
-17.83189997569754
 40
-17.83189997569754
 40
-17.83189997569754
 40
-17.28870088254659
 40
-17.28870088254659
 40
-14.93427723526271
 40
-14.93427723526271
 40
-12.45856778359048
 40
-12.45856778359048
 40
-9.982864741108189
 40
-9.982864741108189
 40
-7.491321538016414
 40
-7.491321538016414
 40
-5.918956059199342
 40
-5.918956059199342
 40
-4.346590580382271
 40
-4.346590580382271
 40
-2.618074844043788
 40
-2.618074844043788
 40
0.0
 40
0.0
 40
0.0
 40
0.0
 10
2959.356608279846
 20
1775.32507466961
 30
0.0
 10
2959.538110759125
 20
1775.294347430917
 30
0.0
 10
2959.719044456396
 20
1775.259708522478
 30
0.0
 10
2960.679565515129
 20
1775.054353438691
 30
0.0
 10
2961.44355529066
 20
1774.81445510661
 30
0.0
 10
2962.938389499628
 20
1774.189341778044
 30
0.0
 10
2963.680074090959
 20
1773.791111352167
 30
0.0
 10
2965.070778815529
 20
1772.857574699038
 30
0.0
 10
2965.719298205933
 20
1772.322603468371
 30
0.0
 10
2966.89330641827
 20
1771.146549484362
 30
0.0
 10
2967.429249745857
 20
1770.49354065857
 30
0.0
 10
2968.190021087134
 20
1769.353236028906
 30
0.0
 10
2968.456746801319
 20
1768.893901251284
 30
0.0
 10
2968.929629128112
 20
1767.949970758369
 30
0.0
 10
2969.135274824537
 20
1767.467249804182
 30
0.0
 10
2969.505423985798
 20
1766.425208816561
 30
0.0
 10
2969.663026229287
 20
1765.863806938169
 30
0.0
 10
2969.961501293015
 20
1764.431341019352
 30
0.0
 10
2970.051447536472
 20
1763.549947115311
 30
0.0
 10
2970.051447536472
 20
1762.67725550063
 30
0.0
  0
SPLINE
  5
A4B
330
1F
100
AcDbEntity
  8
Model
100
AcDbSpline
210
0.0
220
0.0
230
1.0
 70
     8
 71
     3
 72
     8
 73
     4
 74
     0
 42
0.000000001
 43
0.0000000001
 40
-79.87838144799828
 40
-79.87838144799828
 40
-79.87838144799828
 40
-79.87838144799828
 40
-79.86804753117256
 40
-79.86804753117256
 40
-79.86804753117256
 40
-79.86804753117256
 10
2970.051447536472
 20
1762.67725550063
 30
0.0
 10
2970.051447536472
 20
1762.673810861688
 30
0.0
 10
2970.051446149242
 20
1762.670366147436
 30
0.0
 10
2970.051443374599
 20
1762.666921359524
 30
0.0
  0
SPLINE
  5
A4C
330
1F
100
AcDbEntity
  8
Model
100
AcDbSpline
210
0.0
220
0.0
230
1.0
 70
     8
 71
     3
 72
    44
 73
    40
 74
     0
 42
0.000000001
 43
0.0000000001
 40
-57.40696231753259
 40
-57.40696231753259
 40
-57.40696231753259
 40
-57.40696231753259
 40
-56.77915765259547
 40
-56.77915765259547
 40
-54.52197026403155
 40
-54.52197026403155
 40
-52.04514854157536
 40
-52.04514854157536
 40
-49.56833322762482
 40
-49.56833322762482
 40
-47.07583991599421
 40
-47.07583991599421
 40
-45.50535507506895
 40
-45.50535507506895
 40
-43.93487023414365
 40
-43.93487023414365
 40
-42.21330897290818
 40
-42.21330897290818
 40
-39.5835633392371
 40
-39.5835633392371
 40
-36.91399016817889
 40
-36.91399016817889
 40
-35.45700001126898
 40
-35.45700001126898
 40
-34.00000985435906
 40
-34.00000985435906
 40
-32.2954870599397
 40
-32.2954870599397
 40
-29.66546700662945
 40
-29.66546700662945
 40
-27.04992574095725
 40
-27.04992574095725
 40
-25.61050293052929
 40
-25.61050293052929
 40
-24.17108012010133
 40
-24.17108012010133
 40
-22.50050554725643
 40
-22.50050554725643
 40
-22.09302193089976
 40
-22.09302193089976
 40
-22.09302193089976
 40
-22.09302193089976
 10
2954.707618283715
 20
1750.093987679561
 30
0.0
 10
2954.498915431531
 20
1750.135255573417
 30
0.0
 10
2954.291158546282
 20
1750.181709224727
 30
0.0
 10
2953.342585638397
 20
1750.418917900893
 30
0.0
 10
2952.618150239544
 20
1750.670947454307
 30
0.0
 10
2951.170196312443
 20
1751.322479298231
 30
0.0
 10
2950.439249083336
 20
1751.740551050005
 30
0.0
 10
2949.073745261836
 20
1752.711316741946
 30
0.0
 10
2948.439680195283
 20
1753.263662204258
 30
0.0
 10
2947.297499796492
 20
1754.471138698856
 30
0.0
 10
2946.779243808058
 20
1755.138467989753
 30
0.0
 10
2946.049783580394
 20
1756.298386355156
 30
0.0
 10
2945.79584288577
 20
1756.764081530067
 30
0.0
 10
2945.349006871762
 20
1757.719059673268
 30
0.0
 10
2945.156575043135
 20
1758.206454168729
 30
0.0
 10
2944.815249096251
 20
1759.255012009355
 30
0.0
 10
2944.67307311801
 20
1759.818008420017
 30
0.0
 10
2944.411734196719
 20
1761.259210452621
 30
0.0
 10
2944.344861100994
 20
1762.146659637996
 30
0.0
 10
2944.392453338966
 20
1763.91246692978
 30
0.0
 10
2944.510200134229
 20
1764.808544307328
 30
0.0
 10
2944.835592047562
 20
1766.159045646997
 30
0.0
 10
2944.97788482694
 20
1766.629121997822
 30
0.0
 10
2945.313931190623
 20
1767.546813944179
 30
0.0
 10
2945.506849304695
 20
1767.993016839018
 30
0.0
 10
2945.982049494011
 20
1768.940023548091
 30
0.0
 10
2946.273923814386
 20
1769.43616114219
 30
0.0
 10
2947.098529335562
 20
1770.643278053671
 30
0.0
 10
2947.676171713562
 20
1771.323950789272
 30
0.0
 10
2948.943066239028
 20
1772.538654288213
 30
0.0
 10
2949.644295883491
 20
1773.085537668526
 30
0.0
 10
2950.807793841198
 20
1773.812137787051
 30
0.0
 10
2951.235510835059
 20
1774.046475617015
 30
0.0
 10
2952.111725368464
 20
1774.463940360224
 30
0.0
 10
2952.558638228108
 20
1774.646636854814
 30
0.0
 10
2953.549260494811
 20
1774.987769452446
 30
0.0
 10
2954.096309319956
 20
1775.136902280922
 30
0.0
 10
2954.786639382192
 20
1775.276767550808
 30
0.0
 10
2954.922481754195
 20
1775.302020509825
 30
0.0
 10
2955.058660185331
 20
1775.325074669609
 30
0.0
  0
SPLINE
  5
A4D
330
1F
100
AcDbEntity
  8
Model
100
AcDbSpline
210
0.0
220
0.0
230
1.0
 70
     8
 71
     3
 72
    10
 73
     6
 74
     0
 42
0.000000001
 43
0.0000000001
 40
-61.51366225819925
 40
-61.51366225819925
 40
-61.51366225819925
 40
-61.51366225819925
 40
-59.44569021531494
 40
-59.44569021531494
 40
-58.26430858125661
 40
-58.26430858125661
 40
-58.26430858125661
 40
-58.26430858125661
 10
2958.848293027465
 20
1749.953834610342
 30
0.0
 10
2958.153100058757
 20
1749.864641495108
 30
0.0
 10
2957.451461046199
 20
1749.83241603903
 30
0.0
 10
2956.360836688386
 20
1749.870578968796
 30
0.0
 10
2955.963161900799
 20
1749.903050480972
 30
0.0
 10
2955.566943824097
 20
1749.953983163897
 30
0.0
  0
SPLINE
  5
A4E
330
1F
100
AcDbEntity
  8
Model
100
AcDbSpline
210
0.0
220
0.0
230
1.0
 70
     8
 71
     3
 72
    24
 73
    20
 74
     0
 42
0.000000001
 43
0.0000000001
 40
-79.86804753117256
 40
-79.86804753117256
 40
-79.86804753117256
 40
-79.86804753117256
 40
-77.03333824799601
 40
-77.03333824799601
 40
-76.05413603676699
 40
-76.05413603676699
 40
-74.18960944785296
 40
-74.18960944785296
 40
-72.60305882329031
 40
-72.60305882329031
 40
-69.25452229998102
 40
-69.25452229998102
 40
-66.80681211720096
 40
-66.80681211720096
 40
-65.19371809747891
 40
-65.19371809747891
 40
-63.58062407775685
 40
-63.58062407775685
 40
-62.37003967583388
 40
-62.37003967583388
 40
-62.37003967583388
 40
-62.37003967583388
 10
2970.051443374599
 20
1762.666921359524
 30
0.0
 10
2970.050682259159
 20
1761.721977401093
 30
0.0
 10
2969.944283730735
 20
1760.771491794356
 30
0.0
 10
2969.663966230593
 20
1759.531034712155
 30
0.0
 10
2969.579658498395
 20
1759.214600120859
 30
0.0
 10
2969.299715015232
 20
1758.305616303556
 30
0.0
 10
2969.07219328522
 20
1757.722194589015
 30
0.0
 10
2968.576733886168
 20
1756.682333567793
 30
0.0
 10
2968.317790012476
 20
1756.215429710956
 30
0.0
 10
2967.421970036451
 20
1754.815411934804
 30
0.0
 10
2966.683545857547
 20
1753.942257231281
 30
0.0
 10
2965.248118788629
 20
1752.637522432195
 30
0.0
 10
2964.582516004741
 20
1752.139581477247
 30
0.0
 10
2963.407549825794
 20
1751.427477094286
 30
0.0
 10
2962.922526076984
 20
1751.174381699506
 30
0.0
 10
2961.928149773262
 20
1750.733265414535
 30
0.0
 10
2961.420553000129
 20
1750.545555692972
 30
0.0
 10
2960.508159350305
 20
1750.272393052554
 30
0.0
 10
2960.110015171493
 20
1750.173576125936
 30
0.0
 10
2959.70762624864
 20
1750.093897561691
 30
0.0
  0
SPLINE
  5
A4F
330
1F
100
AcDbEntity
  8
Model
100
AcDbSpline
210
0.0
220
0.0
230
1.0
 70
     8
 71
     3
 72
    44
 73
    40
 74
     0
 42
0.000000001
 43
0.0000000001
 40
21.31267735739067
 40
21.31267735739067
 40
21.31267735739067
 40
21.31267735739067
 40
24.39721361483946
 40
24.39721361483946
 40
26.86271307370671
 40
26.86271307370671
 40
30.95108739850083
 40
30.95108739850083
 40
34.18584169793479
 40
34.18584169793479
 40
36.6194192698004
 40
36.6194192698004
 40
39.05299684166601
 40
39.05299684166601
 40
41.49561739196911
 40
41.49561739196911
 40
45.1057794293181
 40
45.1057794293181
 40
48.84441407349047
 40
48.84441407349047
 40
51.3014364093735
 40
51.3014364093735
 40
55.44977307358535
 40
55.44977307358535
 40
58.60554509354711
 40
58.60554509354711
 40
61.02747983677746
 40
61.02747983677746
 40
63.44941458000779
 40
63.44941458000779
 40
65.91342862029328
 40
65.91342862029328
 40
69.51948806035129
 40
69.51948806035129
 40
73.31969873707797
 40
73.31969873707797
 40
76.85227627289011
 40
76.85227627289011
 40
78.35675001783489
 40
78.35675001783489
 40
78.35675001783489
 40
78.35675001783489
 10
2955.058660185328
 20
1775.325074669611
 30
0.0
 10
2953.784845019581
 20
1775.501159438598
 30
0.0
 10
2952.533118635756
 20
1775.834609917169
 30
0.0
 10
2950.389247549844
 20
1776.699337386148
 30
0.0
 10
2949.475214504147
 20
1777.177327289438
 30
0.0
 10
2947.19465277853
 20
1778.672738539038
 30
0.0
 10
2945.927742084276
 20
1779.838982277887
 30
0.0
 10
2944.05663524097
 20
1782.236157496789
 30
0.0
 10
2943.369113987536
 20
1783.402124889582
 30
0.0
 10
2942.44813742634
 20
1785.564701889617
 30
0.0
 10
2942.144153034074
 20
1786.531682550338
 30
0.0
 10
2941.730635834926
 20
1788.506050569742
 30
0.0
 10
2941.621129978843
 20
1789.513314337833
 30
0.0
 10
2941.600706246397
 20
1791.533515296644
 30
0.0
 10
2941.690529697348
 20
1792.546520196556
 30
0.0
 10
2942.156838181118
 20
1795.011291682917
 30
0.0
 10
2942.650499211962
 20
1796.440706739886
 30
0.0
 10
2944.052527157097
 20
1799.147710142053
 30
0.0
 10
2944.9749983939
 20
1800.417671094549
 30
0.0
 10
2946.782296443428
 20
1802.251044665313
 30
0.0
 10
2947.571337366915
 20
1802.907751938096
 30
0.0
 10
2949.846135364328
 20
1804.44995482621
 30
0.0
 10
2951.437916119214
 20
1805.179992292064
 30
0.0
 10
2954.376111304396
 20
1805.975687398176
 30
0.0
 10
2955.689576831434
 20
1806.158979134946
 30
0.0
 10
2958.014866571473
 20
1806.188974172604
 30
0.0
 10
2959.025855239699
 20
1806.104255217609
 30
0.0
 10
2961.012436726696
 20
1805.74247776775
 30
0.0
 10
2961.987906950961
 20
1805.465442682703
 30
0.0
 10
2963.882908928239
 20
1804.723179727995
 30
0.0
 10
2964.801230156453
 20
1804.254733690005
 30
0.0
 10
2966.927592388005
 20
1802.891248540346
 30
0.0
 10
2968.07181725926
 20
1801.898747681499
 30
0.0
 10
2970.08109010433
 20
1799.569251366311
 30
0.0
 10
2970.927358868513
 20
1798.216701651408
 30
0.0
 10
2972.128785171022
 20
1795.423339190423
 30
0.0
 10
2972.514486730134
 20
1793.995691550781
 30
0.0
 10
2972.767235059905
 20
1791.923919430267
 30
0.0
 10
2972.80511850932
 20
1791.300588031661
 30
0.0
 10
2972.80511850932
 20
1790.67725550063
 30
0.0
  0
SPLINE
  5
A50
330
1F
100
AcDbEntity
  8
Model
100
AcDbSpline
210
0.0
220
0.0
230
1.0
 70
     8
 71
     3
 72
    20
 73
    16
 74
     0
 42
0.000000001
 43
0.0000000001
 40
0.0
 40
0.0
 40
0.0
 40
0.0
 40
2.442896945736835
 40
2.442896945736835
 40
5.895084232660027
 40
5.895084232660027
 40
7.843751031638473
 40
7.843751031638473
 40
11.76071816388524
 40
11.76071816388524
 40
14.70635000125016
 40
14.70635000125016
 40
17.12925234243267
 40
17.12925234243267
 40
17.86558060902327
 40
17.86558060902327
 40
17.86558060902327
 40
17.86558060902327
 10
2972.80511850932
 20
1790.67725550063
 30
0.0
 10
2972.80511850932
 20
1789.66511611212
 30
0.0
 10
2972.70503489215
 20
1788.652937449485
 30
0.0
 10
2972.226579129105
 20
1786.257059941114
 30
0.0
 10
2971.749807032628
 20
1784.893155293752
 30
0.0
 10
2970.724630712451
 20
1782.901056599933
 30
0.0
 10
2970.298103451268
 20
1782.211048551669
 30
0.0
 10
2968.859466365843
 20
1780.246060209622
 30
0.0
 10
2967.690091355401
 20
1779.085422268146
 30
0.0
 10
2965.37458789299
 20
1777.415611498108
 30
0.0
 10
2964.295157218412
 20
1776.816081638602
 30
0.0
 10
2962.226480119467
 20
1775.967306592686
 30
0.0
 10
2961.255227007902
 20
1775.67462273567
 30
0.0
 10
2959.963530143926
 20
1775.418069404536
 30
0.0
 10
2959.660679132804
 20
1775.367107648444
 30
0.0
 10
2959.356608279846
 20
1775.325074669611
 30
0.0
  0
SPLINE
  5
A51
330
1F
100
AcDbEntity
  8
Model
100
AcDbSpline
210
0.0
220
0.0
230
1.0
 70
     8
 71
     3
 72
    24
 73
    20
 74
     0
 42
0.000000001
 43
0.0000000001
 40
-0.015038526226548
 40
-0.015038526226548
 40
-0.015038526226548
 40
-0.015038526226548
 40
0.0
 40
0.0
 40
1.016173575979417
 40
1.016173575979417
 40
1.633353592166998
 40
1.633353592166998
 40
1.93253264156579
 40
1.93253264156579
 40
2.166759440856003
 40
2.166759440856003
 40
2.426148859654919
 40
2.426148859654919
 40
2.851776834542251
 40
2.851776834542251
 40
4.212389196453075
 40
4.212389196453075
 40
4.227823209976594
 40
4.227823209976594
 40
4.227823209976594
 40
4.227823209976594
 10
2955.058660185336
 20
1775.32507466961
 30
0.0
 10
2955.063672788002
 20
1775.325115595807
 30
0.0
 10
2955.068686370445
 20
1775.325156395683
 30
0.0
 10
2955.412407766914
 20
1775.327944368035
 30
0.0
 10
2955.760512161871
 20
1775.330132345662
 30
0.0
 10
2956.309594071692
 20
1775.332490656213
 30
0.0
 10
2956.517412436138
 20
1775.33313900267
 30
0.0
 10
2956.83212291777
 20
1775.333727336769
 30
0.0
 10
2956.934662872423
 20
1775.333857486143
 30
0.0
 10
2957.118014097835
 20
1775.333979565655
 30
0.0
 10
2957.19836423095
 20
1775.333995121881
 30
0.0
 10
2957.36804779496
 20
1775.333947802446
 30
0.0
 10
2957.456999269032
 20
1775.333876449251
 30
0.0
 10
2957.692399799734
 20
1775.333564763727
 30
0.0
 10
2957.838169068409
 20
1775.333246468608
 30
0.0
 10
2958.448804719362
 20
1775.331398361543
 30
0.0
 10
2958.899667509034
 20
1775.32878138132
 30
0.0
 10
2959.346582171463
 20
1775.325156395117
 30
0.0
 10
2959.351595601403
 20
1775.325115596426
 30
0.0
 10
2959.356608279841
 20
1775.32507466961
 30
0.0
  0
LINE
  5
A52
330
1F
100
AcDbEntity
  8
Model
100
AcDbLine
 10
2954.70763423259
 20
1749.953785143619
 30
0.0
 11
2954.70763423259
 21
1753.512104110718
 31
0.0
210
0.0
220
1.0
230
0.0
  0
LINE
  5
A53
330
1F
100
AcDbEntity
  8
Model
100
AcDbLine
 10
2959.707634232589
 20
1749.953785143619
 30
0.0
 11
2959.707634232589
 21
1753.512104110718
 31
0.0
210
0.0
220
1.0
230
0.0
  0
LINE
  5
A54
330
1F
100
AcDbEntity
  8
Model
100
AcDbLine
 10
2948.675410778536
 20
1558.796352191074
 30
0.0
 11
2965.739857686644
 21
1558.796352191074
 31
0.0
  0
LINE
  5
A55
330
1F
100
AcDbEntity
  8
Model
100
AcDbLine
 10
2966.238750265571
 20
1559.263092685812
 30
0.0
 11
2948.176518199608
 21
1559.263092685812
 31
0.0
  0
LINE
  5
A56
330
1F
100
AcDbEntity
  8
Model
100
AcDbLine
 10
2947.318376339761
 20
1572.135220583531
 30
0.0
 11
2967.09689212542
 21
1572.135220583531
 31
0.0
  0
LINE
  5
A57
330
1F
100
AcDbEntity
  8
Model
100
AcDbLine
 10
2967.20763423259
 20
1575.46117110972
 30
0.0
 11
2947.207634232589
 21
1575.46117110972
 31
0.0
  0
LINE
  5
A58
330
1F
100
AcDbEntity
  8
Model
100
AcDbLine
 10
2948.207634232589
 20
1536.796352191074
 30
0.0
 11
2966.207634232589
 21
1536.796352191074
 31
0.0
  0
LINE
  5
A59
330
1F
100
AcDbEntity
  8
Model
100
AcDbLine
 10
2966.707634232589
 20
1537.296352191074
 30
0.0
 11
2947.707634232589
 21
1537.296352191074
 31
0.0
  0
LINE
  5
A5A
330
1F
100
AcDbEntity
  8
Model
100
AcDbLine
 10
2947.707634232589
 20
1538.296352191074
 30
0.0
 11
2966.707634232589
 21
1538.296352191074
 31
0.0
  0
LINE
  5
A5B
330
1F
100
AcDbEntity
  8
Model
100
AcDbLine
 10
2966.207634232589
 20
1538.796352191074
 30
0.0
 11
2948.207634232589
 21
1538.796352191074
 31
0.0
  0
LINE
  5
A5C
330
1F
100
AcDbEntity
  8
Model
100
AcDbLine
 10
2957.20763423259
 20
1580.896092205369
 30
0.0
 11
2968.207634232589
 21
1580.896092205369
 31
0.0
  0
LINE
  5
A5D
330
1F
100
AcDbEntity
  8
Model
100
AcDbLine
 10
2946.207634232589
 20
1580.896092205369
 30
0.0
 11
2957.20763423259
 21
1580.896092205369
 31
0.0
  0
LINE
  5
A5E
330
1F
100
AcDbEntity
  8
Model
100
AcDbLine
 10
2957.20763423259
 20
1579.89609220537
 30
0.0
 11
2966.207634232589
 21
1579.89609220537
 31
0.0
  0
LINE
  5
A5F
330
1F
100
AcDbEntity
  8
Model
100
AcDbLine
 10
2948.207634232589
 20
1579.89609220537
 30
0.0
 11
2957.20763423259
 21
1579.89609220537
 31
0.0
  0
LINE
  5
A60
330
1F
100
AcDbEntity
  8
Model
100
AcDbLine
 10
2957.20763423259
 20
1579.83229244377
 30
0.0
 11
2966.207634232589
 21
1579.83229244377
 31
0.0
  0
LINE
  5
A61
330
1F
100
AcDbEntity
  8
Model
100
AcDbLine
 10
2948.207634232589
 20
1579.83229244377
 30
0.0
 11
2957.20763423259
 21
1579.83229244377
 31
0.0
  0
LINE
  5
A62
330
1F
100
AcDbEntity
  8
Model
100
AcDbLine
 10
2957.20763423259
 20
1577.917291687255
 30
0.0
 11
2964.784498256904
 21
1577.917291687255
 31
0.0
  0
LINE
  5
A63
330
1F
100
AcDbEntity
  8
Model
100
AcDbLine
 10
2949.630770208275
 20
1577.917291687255
 30
0.0
 11
2957.20763423259
 21
1577.917291687255
 31
0.0
  0
LINE
  5
A64
330
1F
100
AcDbEntity
  8
Model
100
AcDbLine
 10
2966.139714805582
 20
1582.896092205368
 30
0.0
 11
2970.207634232589
 21
1582.896092205369
 31
0.0
  0
LINE
  5
A65
330
1F
100
AcDbEntity
  8
Model
100
AcDbLine
 10
2944.207634232589
 20
1582.896092205369
 30
0.0
 11
2948.275553659602
 21
1582.896092205368
 31
0.0
  0
LINE
  5
A66
330
1F
100
AcDbEntity
  8
Model
100
AcDbLine
 10
2997.207634232589
 20
1631.796352191074
 30
0.0
 11
2917.20763423259
 21
1631.796352191074
 31
0.0
  0
LINE
  5
A67
330
1F
100
AcDbEntity
  8
Model
100
AcDbLine
 10
2997.207634232589
 20
1631.796352191074
 30
0.0
 11
2997.207634232589
 21
1624.796352191074
 31
0.0
  0
LINE
  5
A68
330
1F
100
AcDbEntity
  8
Model
100
AcDbLine
 10
3017.20763423259
 20
1631.796352191074
 30
0.0
 11
2997.207634232589
 21
1631.796352191074
 31
0.0
  0
LINE
  5
A69
330
1F
100
AcDbEntity
  8
Model
100
AcDbLine
 10
3017.20763423259
 20
1624.796352191074
 30
0.0
 11
3017.20763423259
 21
1631.796352191074
 31
0.0
  0
ARC
  5
A6A
330
1F
100
AcDbEntity
  8
Model
100
AcDbCircle
 10
3007.207634232589
 20
1590.973688221773
 30
0.0
 40
4.999999999999912
100
AcDbArc
 50
277.272139554926
 51
0.0
  0
ARC
  5
A6B
330
1F
100
AcDbEntity
  8
Model
100
AcDbCircle
 10
2907.207634232589
 20
1590.973688221773
 30
0.0
 40
5.0
100
AcDbArc
 50
180.0
 51
262.7278604450741
  0
LINE
  5
A6C
330
1F
100
AcDbEntity
  8
Model
100
AcDbLine
 10
2997.713963346514
 20
1584.85259070999
 30
0.0
 11
2997.207634232589
 21
1589.826887728503
 31
0.0
  0
LINE
  5
A6D
330
1F
100
AcDbEntity
  8
Model
100
AcDbLine
 10
2917.20763423259
 20
1589.826887728503
 30
0.0
 11
2916.701305118666
 21
1584.85259070999
 31
0.0
  0
LINE
  5
A6E
330
1F
100
AcDbEntity
  8
Model
100
AcDbLine
 10
2917.20763423259
 20
1631.796352191074
 30
0.0
 11
2897.207634232589
 21
1631.796352191074
 31
0.0
  0
LINE
  5
A6F
330
1F
100
AcDbEntity
  8
Model
100
AcDbLine
 10
2917.20763423259
 20
1624.796352191074
 30
0.0
 11
2917.20763423259
 21
1631.796352191074
 31
0.0
  0
LINE
  5
A70
330
1F
100
AcDbEntity
  8
Model
100
AcDbLine
 10
2897.207634232589
 20
1631.796352191074
 30
0.0
 11
2897.207634232589
 21
1624.796352191074
 31
0.0
  0
LINE
  5
A71
330
1F
100
AcDbEntity
  8
Model
100
AcDbLine
 10
3017.20763423259
 20
1624.796352191074
 30
0.0
 11
2997.207634232589
 21
1624.796352191074
 31
0.0
  0
ARC
  5
A72
330
1F
100
AcDbEntity
  8
Model
100
AcDbCircle
 10
3015.207634232589
 20
1624.796352191074
 30
0.0
 40
2.0
100
AcDbArc
 50
270.0
 51
0.0
  0
LINE
  5
A73
330
1F
100
AcDbEntity
  8
Model
100
AcDbLine
 10
2997.207634232589
 20
1624.796352191074
 30
0.0
 11
2917.20763423259
 21
1624.796352191074
 31
0.0
  0
LINE
  5
A74
330
1F
100
AcDbEntity
  8
Model
100
AcDbLine
 10
2997.207634232589
 20
1622.796352191074
 30
0.0
 11
2997.207634232589
 21
1624.796352191074
 31
0.0
  0
LINE
  5
A75
330
1F
100
AcDbEntity
  8
Model
100
AcDbLine
 10
2917.20763423259
 20
1624.796352191074
 30
0.0
 11
2897.207634232589
 21
1624.796352191074
 31
0.0
  0
LINE
  5
A76
330
1F
100
AcDbEntity
  8
Model
100
AcDbLine
 10
2917.20763423259
 20
1622.796352191074
 30
0.0
 11
2917.20763423259
 21
1624.796352191074
 31
0.0
  0
ARC
  5
A77
330
1F
100
AcDbEntity
  8
Model
100
AcDbCircle
 10
2899.20763423259
 20
1624.796352191074
 30
0.0
 40
2.0
100
AcDbArc
 50
180.0
 51
270.0
  0
LINE
  5
A78
330
1F
100
AcDbEntity
  8
Model
100
AcDbLine
 10
2917.20763423259
 20
1622.796352191074
 30
0.0
 11
2997.207634232589
 21
1622.796352191074
 31
0.0
  0
LINE
  5
A79
330
1F
100
AcDbEntity
  8
Model
100
AcDbLine
 10
2997.207634232589
 20
1622.796352191074
 30
0.0
 11
3015.207634232589
 21
1622.796352191074
 31
0.0
  0
LINE
  5
A7A
330
1F
100
AcDbEntity
  8
Model
100
AcDbLine
 10
2899.20763423259
 20
1622.796352191074
 30
0.0
 11
2917.20763423259
 21
1622.796352191074
 31
0.0
  0
SPLINE
  5
A7B
330
1F
100
AcDbEntity
  8
Model
100
AcDbSpline
210
0.0
220
0.0
230
1.0
 70
     8
 71
     3
 72
    16
 73
    12
 74
     0
 42
0.000000001
 43
0.0000000001
 40
0.0
 40
0.0
 40
0.0
 40
0.0
 40
3.318095753297203
 40
3.318095753297203
 40
6.581226467333607
 40
6.581226467333607
 40
9.5263566159946
 40
9.5263566159946
 40
12.73537081078735
 40
12.73537081078735
 40
15.75736548256709
 40
15.75736548256709
 40
15.75736548256709
 40
15.75736548256709
 10
2902.207634232589
 20
1590.973688221773
 30
0.0
 10
2902.207634232589
 20
1590.973688221773
 30
0.0
 10
2902.485517211003
 20
1590.949924622201
 30
0.0
 10
2903.556255571594
 20
1590.85984329513
 30
0.0
 10
2904.340126269855
 20
1590.794322814977
 30
0.0
 10
2906.2319687038
 20
1590.640191469006
 30
0.0
 10
2907.3001734972
 20
1590.554567158038
 30
0.0
 10
2909.793712095315
 20
1590.360468257399
 30
0.0
 10
2911.241987173172
 20
1590.250737119628
 30
0.0
 10
2914.201807995686
 20
1590.03484629016
 30
0.0
 10
2915.704404324009
 20
1589.928895987466
 30
0.0
 10
2917.20763423259
 20
1589.826887728503
 30
0.0
  0
LINE
  5
A7C
330
1F
100
AcDbEntity
  8
Model
100
AcDbLine
 10
2902.207634232589
 20
1620.796352191074
 30
0.0
 11
2902.207634232589
 21
1590.973688221773
 31
0.0
  0
ARC
  5
A7D
330
1F
100
AcDbEntity
  8
Model
100
AcDbCircle
 10
2957.207634232592
 20
1982.796352191074
 30
0.0
 40
395.0
100
AcDbArc
 50
264.1879331651845
 51
275.8120668348155
  0
LINE
  5
A7E
330
1F
100
AcDbEntity
  8
Model
100
AcDbLine
 10
2917.20763423259
 20
1589.826887728503
 30
0.0
 11
2917.20763423259
 21
1620.796352191074
 31
0.0
  0
SPLINE
  5
A7F
330
1F
100
AcDbEntity
  8
Model
100
AcDbSpline
210
0.0
220
0.0
230
1.0
 70
     8
 71
     3
 72
    18
 73
    14
 74
     0
 42
0.000000001
 43
0.0000000001
 40
0.0
 40
0.0
 40
0.0
 40
0.0
 40
1.966311565827654
 40
1.966311565827654
 40
4.819922022796998
 40
4.819922022796998
 40
7.868401704087887
 40
7.868401704087887
 40
9.825614111988896
 40
9.825614111988896
 40
13.19784412298634
 40
13.19784412298634
 40
15.75736548256792
 40
15.75736548256792
 40
15.75736548256792
 40
15.75736548256792
 10
2997.207634232589
 20
1589.826887728503
 30
0.0
 10
2998.185736008525
 20
1589.893261114691
 30
0.0
 10
2999.163613775253
 20
1589.961279509894
 30
0.0
 10
3001.514957946581
 20
1590.128679207883
 30
0.0
 10
3002.867313540881
 20
1590.228360285796
 30
0.0
 10
3005.472528571294
 20
1590.425785688998
 30
0.0
 10
3006.711903635167
 20
1590.522874947949
 30
0.0
 10
3008.47959711804
 20
1590.66426453019
 30
0.0
 10
3009.1039242965
 20
1590.715025340531
 30
0.0
 10
3010.589024765491
 20
1590.836990369885
 30
0.0
 10
3011.292560067097
 20
1590.896218280033
 30
0.0
 10
3012.042914442484
 20
1590.959630328416
 30
0.0
 10
3012.207634232589
 20
1590.973688221773
 30
0.0
 10
3012.207634232589
 20
1590.973688221773
 30
0.0
  0
LINE
  5
A80
330
1F
100
AcDbEntity
  8
Model
100
AcDbLine
 10
2997.207634232589
 20
1620.796352191074
 30
0.0
 11
2997.207634232589
 21
1589.826887728503
 31
0.0
  0
LINE
  5
A81
330
1F
100
AcDbEntity
  8
Model
100
AcDbLine
 10
3012.207634232589
 20
1590.973688221773
 30
0.0
 11
3012.207634232589
 21
1620.796352191074
 31
0.0
  0
LINE
  5
A82
330
1F
100
AcDbEntity
  8
Model
100
AcDbLine
 10
2997.207634232589
 20
1620.796352191074
 30
0.0
 11
3012.207634232589
 21
1620.796352191074
 31
0.0
  0
ARC
  5
A83
330
1F
100
AcDbEntity
  8
Model
100
AcDbCircle
 10
3014.207634232589
 20
1620.796352191074
 30
0.0
 40
2.0
100
AcDbArc
 50
90.0
 51
180.0
  0
LINE
  5
A84
330
1F
100
AcDbEntity
  8
Model
100
AcDbLine
 10
2917.20763423259
 20
1620.796352191074
 30
0.0
 11
2997.207634232589
 21
1620.796352191074
 31
0.0
  0
LINE
  5
A85
330
1F
100
AcDbEntity
  8
Model
100
AcDbLine
 10
2997.207634232589
 20
1620.796352191074
 30
0.0
 11
2997.207634232589
 21
1622.796352191074
 31
0.0
  0
LINE
  5
A86
330
1F
100
AcDbEntity
  8
Model
100
AcDbLine
 10
2917.20763423259
 20
1620.796352191074
 30
0.0
 11
2917.20763423259
 21
1622.796352191074
 31
0.0
  0
LINE
  5
A87
330
1F
100
AcDbEntity
  8
Model
100
AcDbLine
 10
2902.207634232589
 20
1620.796352191074
 30
0.0
 11
2917.20763423259
 21
1620.796352191074
 31
0.0
  0
ARC
  5
A88
330
1F
100
AcDbEntity
  8
Model
100
AcDbCircle
 10
2900.20763423259
 20
1620.796352191074
 30
0.0
 40
2.0
100
AcDbArc
 50
0.0
 51
90.0
  0
SPLINE
  5
A89
330
1F
100
AcDbEntity
  8
Model
100
AcDbSpline
210
0.0
220
0.0
230
1.0
 70
     8
 71
     3
 72
    18
 73
    14
 74
     0
 42
0.000000001
 43
0.0000000001
 40
0.0
 40
0.0
 40
0.0
 40
0.0
 40
1.966311565827654
 40
1.966311565827654
 40
4.819922022796998
 40
4.819922022796998
 40
7.868401704087887
 40
7.868401704087887
 40
9.825614111988896
 40
9.825614111988896
 40
13.19784412298634
 40
13.19784412298634
 40
15.75736548256792
 40
15.75736548256792
 40
15.75736548256792
 40
15.75736548256792
 10
2997.713963346514
 20
1584.85259070999
 30
0.0
 10
2998.374285220565
 20
1584.919804265623
 30
0.0
 10
2999.034455864766
 20
1584.98868365317
 30
0.0
 10
3000.621861212499
 20
1585.158202334679
 30
0.0
 10
3001.534843892196
 20
1585.259145198387
 30
0.0
 10
3003.293638849437
 20
1585.459069657326
 30
0.0
 10
3004.130347753317
 20
1585.557387894239
 30
0.0
 10
3005.323727319813
 20
1585.700567218028
 30
0.0
 10
3005.745214022571
 20
1585.751970570271
 30
0.0
 10
3006.747813495308
 20
1585.875479460756
 30
0.0
 10
3007.222774036477
 20
1585.935457091284
 30
0.0
 10
3007.729342391167
 20
1585.999671823826
 30
0.0
 10
3007.840545624996
 20
1586.0139076652
 30
0.0
 10
3007.840545624996
 20
1586.0139076652
 30
0.0
  0
SPLINE
  5
A8A
330
1F
100
AcDbEntity
  8
Model
100
AcDbSpline
210
0.0
220
0.0
230
1.0
 70
     8
 71
     3
 72
    16
 73
    12
 74
     0
 42
0.000000001
 43
0.0000000001
 40
0.0
 40
0.0
 40
0.0
 40
0.0
 40
3.318095753297203
 40
3.318095753297203
 40
6.581226467333607
 40
6.581226467333607
 40
9.5263566159946
 40
9.5263566159946
 40
12.73537081078735
 40
12.73537081078735
 40
15.75736548256709
 40
15.75736548256709
 40
15.75736548256709
 40
15.75736548256709
 10
2906.574722840184
 20
1586.0139076652
 30
0.0
 10
2906.574722840184
 20
1586.0139076652
 30
0.0
 10
2906.762323163162
 20
1585.98984326057
 30
0.0
 10
2907.485184503647
 20
1585.898621663537
 30
0.0
 10
2908.014379911757
 20
1585.832271810216
 30
0.0
 10
2909.291573116105
 20
1585.67618943455
 30
0.0
 10
2910.012724031482
 20
1585.589481271544
 30
0.0
 10
2911.696125616708
 20
1585.392925422796
 30
0.0
 10
2912.673864065895
 20
1585.281805283281
 30
0.0
 10
2914.672055338479
 20
1585.063181658502
 30
0.0
 10
2915.686466361817
 20
1584.955890212736
 30
0.0
 10
2916.701305118665
 20
1584.85259070999
 30
0.0
  0
ARC
  5
A8B
330
1F
100
AcDbEntity
  8
Model
100
AcDbCircle
 10
2957.207634232592
 20
1982.796352191074
 30
0.0
 40
400.0
100
AcDbArc
 50
264.1879331651845
 51
275.8120668348155
  0
LINE
  5
A8C
330
1F
100
AcDbEntity
  8
Model
100
AcDbLine
 10
2950.207634232589
 20
1538.796352191074
 30
0.0
 11
2950.207634232589
 21
1558.796352191074
 31
0.0
  0
LINE
  5
A8D
330
1F
100
AcDbEntity
  8
Model
100
AcDbLine
 10
2964.20763423259
 20
1538.796352191074
 30
0.0
 11
2964.20763423259
 21
1558.796352191074
 31
0.0
  0
ARC
  5
A8E
330
1F
100
AcDbEntity
  8
Model
100
AcDbCircle
 10
2965.739857686644
 20
1559.296352191074
 30
0.0
 40
0.5
100
AcDbArc
 50
270.0
 51
356.1859251657113
  0
ARC
  5
A8F
330
1F
100
AcDbEntity
  8
Model
100
AcDbCircle
 10
2948.675410778536
 20
1559.296352191074
 30
0.0
 40
0.5
100
AcDbArc
 50
183.8140748342887
 51
270.0
  0
LINE
  5
A90
330
1F
100
AcDbEntity
  8
Model
100
AcDbLine
 10
2947.207634232589
 20
1575.46117110972
 30
0.0
 11
2947.207634232589
 21
1580.896092205369
 31
0.0
  0
LINE
  5
A91
330
1F
100
AcDbEntity
  8
Model
100
AcDbLine
 10
2967.20763423259
 20
1575.46117110972
 30
0.0
 11
2967.20763423259
 21
1580.896092205369
 31
0.0
  0
LINE
  5
A92
330
1F
100
AcDbEntity
  8
Model
100
AcDbLine
 10
2948.176518199608
 20
1559.263092685812
 30
0.0
 11
2947.318376339761
 21
1572.135220583531
 31
0.0
  0
LINE
  5
A93
330
1F
100
AcDbEntity
  8
Model
100
AcDbLine
 10
2966.238750265571
 20
1559.263092685812
 30
0.0
 11
2967.09689212542
 21
1572.135220583531
 31
0.0
  0
ARC
  5
A94
330
1F
100
AcDbEntity
  8
Model
100
AcDbCircle
 10
2917.20763423259
 20
1575.46117110972
 30
0.0
 40
50.0
100
AcDbArc
 50
356.1859251657113
 51
0.0
  0
ARC
  5
A95
330
1F
100
AcDbEntity
  8
Model
100
AcDbCircle
 10
2997.207634232589
 20
1575.46117110972
 30
0.0
 40
50.0
100
AcDbArc
 50
180.0
 51
183.8140748342887
  0
ARC
  5
A96
330
1F
100
AcDbEntity
  8
Model
100
AcDbCircle
 10
2948.207634232589
 20
1537.296352191074
 30
0.0
 40
0.5
100
AcDbArc
 50
180.0
 51
270.0
  0
ARC
  5
A97
330
1F
100
AcDbEntity
  8
Model
100
AcDbCircle
 10
2966.207634232589
 20
1537.296352191074
 30
0.0
 40
0.5
100
AcDbArc
 50
270.0
 51
0.0
  0
LINE
  5
A98
330
1F
100
AcDbEntity
  8
Model
100
AcDbLine
 10
2947.707634232589
 20
1537.296352191074
 30
0.0
 11
2947.707634232589
 21
1538.296352191074
 31
0.0
  0
LINE
  5
A99
330
1F
100
AcDbEntity
  8
Model
100
AcDbLine
 10
2966.707634232589
 20
1537.296352191074
 30
0.0
 11
2966.707634232589
 21
1538.296352191074
 31
0.0
  0
ARC
  5
A9A
330
1F
100
AcDbEntity
  8
Model
100
AcDbCircle
 10
2966.207634232589
 20
1538.296352191074
 30
0.0
 40
0.5
100
AcDbArc
 50
0.0
 51
90.0
  0
ARC
  5
A9B
330
1F
100
AcDbEntity
  8
Model
100
AcDbCircle
 10
2948.207634232589
 20
1538.296352191074
 30
0.0
 40
0.5
100
AcDbArc
 50
90.0
 51
180.0
  0
ARC
  5
A9C
330
1F
100
AcDbEntity
  8
Model
100
AcDbCircle
 10
2968.207634232589
 20
1582.896092205369
 30
0.0
 40
2.000000000000055
100
AcDbArc
 50
270.0
 51
0.0
  0
ARC
  5
A9D
330
1F
100
AcDbEntity
  8
Model
100
AcDbCircle
 10
2946.207634232589
 20
1582.896092205369
 30
0.0
 40
2.000000000000055
100
AcDbArc
 50
180.0
 51
270.0
  0
ARC
  5
A9E
330
1F
100
AcDbEntity
  8
Model
100
AcDbCircle
 10
2967.20763423259
 20
1579.89609220537
 30
0.0
 40
1.000000000000055
100
AcDbArc
 50
90.0
 51
180.0
  0
ARC
  5
A9F
330
1F
100
AcDbEntity
  8
Model
100
AcDbCircle
 10
2947.207634232589
 20
1579.89609220537
 30
0.0
 40
1.000000000000055
100
AcDbArc
 50
0.0
 51
90.0
  0
LINE
  5
AA0
330
1F
100
AcDbEntity
  8
Model
100
AcDbLine
 10
2948.207634232589
 20
1579.83229244377
 30
0.0
 11
2948.207634232589
 21
1579.89609220537
 31
0.0
  0
LINE
  5
AA1
330
1F
100
AcDbEntity
  8
Model
100
AcDbLine
 10
2966.207634232589
 20
1579.83229244377
 30
0.0
 11
2966.207634232589
 21
1579.89609220537
 31
0.0
  0
ARC
  5
AA2
330
1F
100
AcDbEntity
  8
Model
100
AcDbCircle
 10
2964.20763423259
 20
1579.83229244377
 30
0.0
 40
1.999999999999877
100
AcDbArc
 50
286.7641061425983
 51
0.0
  0
ARC
  5
AA3
330
1F
100
AcDbEntity
  8
Model
100
AcDbCircle
 10
2950.207634232589
 20
1579.83229244377
 30
0.0
 40
1.999999999999877
100
AcDbArc
 50
179.999999999987
 51
253.2358938574017
  0
ARC
  5
AA4
330
1F
100
AcDbEntity
  8
Model
100
AcDbCircle
 10
2957.358744744985
 20
1602.568375813903
 30
0.0
 40
25.74524740294446
100
AcDbArc
 50
270.0
 51
286.7641061425983
  0
ARC
  5
AA5
330
1F
100
AcDbEntity
  8
Model
100
AcDbCircle
 10
2957.056523720195
 20
1602.568375813903
 30
0.0
 40
25.74524740294446
100
AcDbArc
 50
253.2358938574017
 51
270.0
  0
LINE
  5
AA6
330
1F
100
AcDbEntity
  8
Model
100
AcDbLine
 10
2957.358744744985
 20
1576.823128410959
 30
0.0
 11
2957.056523720195
 21
1576.823128410959
 31
0.0
  0
LINE
  5
AA7
330
1F
100
AcDbEntity
  8
Model
100
AcDbLine
 10
2944.207634232589
 20
1582.896092205369
 30
0.0
 11
2944.207634232589
 21
1583.007658003757
 31
0.0
  0
LINE
  5
AA8
330
1F
100
AcDbEntity
  8
Model
100
AcDbLine
 10
2970.207634232589
 20
1582.896092205369
 30
0.0
 11
2970.207634232589
 21
1583.007658003757
 31
0.0
  0
LINE
  5
AA9
330
1F
100
AcDbEntity
  8
Model
100
AcDbLine
 10
3243.078136562725
 20
1749.953785143619
 30
0.0
 11
3248.078136562723
 21
1749.953785143619
 31
0.0
210
0.0
220
1.0
230
0.0
  0
SPLINE
  5
AAA
330
1F
100
AcDbEntity
  8
Model
100
AcDbSpline
210
0.0
220
0.0
230
1.0
 70
     8
 71
     3
 72
    38
 73
    34
 74
     0
 42
0.000000001
 43
0.0000000001
 40
3.803502092823475
 40
3.803502092823475
 40
3.803502092823475
 40
3.803502092823475
 40
4.278792055004567
 40
4.278792055004567
 40
4.754082017185659
 40
4.754082017185659
 40
5.22937197936675
 40
5.22937197936675
 40
5.704661941547843
 40
5.704661941547843
 40
6.180247502572618
 40
6.180247502572618
 40
6.655833063597397
 40
6.655833063597397
 40
7.131418624622173
 40
7.131418624622173
 40
7.607004185646951
 40
7.607004185646951
 40
8.082589746671727
 40
8.082589746671727
 40
8.558175307696505
 40
8.558175307696505
 40
9.033760868721284
 40
9.033760868721284
 40
9.509346429746059
 40
9.509346429746059
 40
9.984636391927152
 40
9.984636391927152
 40
10.45992635410824
 40
10.45992635410824
 40
10.93521631628933
 40
10.93521631628933
 40
11.41050627847042
 40
11.41050627847042
 40
11.41050627847042
 40
11.41050627847042
 10
3243.078136562725
 20
1755.67725550063
 30
0.0
 10
3243.078136562725
 20
1755.67725550063
 30
0.0
 10
3243.093439956716
 20
1755.682770479777
 30
0.0
 10
3243.157398558796
 20
1755.705234562141
 30
0.0
 10
3243.206035608701
 20
1755.72216958564
 30
0.0
 10
3243.334047484907
 20
1755.764781774139
 30
0.0
 10
3243.413523991446
 20
1755.790461310746
 30
0.0
 10
3243.596594903958
 20
1755.845791969531
 30
0.0
 10
3243.700203114892
 20
1755.875393687449
 30
0.0
 10
3243.920604620877
 20
1755.932918012265
 30
0.0
 10
3244.045163884266
 20
1755.962914943242
 30
0.0
 10
3244.316762325679
 20
1756.019671189692
 30
0.0
 10
3244.463802195172
 20
1756.04637302749
 30
0.0
 10
3244.771292432697
 20
1756.091068449114
 30
0.0
 10
3244.932014404807
 20
1756.109048140865
 30
0.0
 10
3245.256169354595
 20
1756.132980371537
 30
0.0
 10
3245.419608042383
 20
1756.138907085319
 30
0.0
 10
3245.736665083066
 20
1756.138907085319
 30
0.0
 10
3245.900103770853
 20
1756.132980371537
 30
0.0
 10
3246.224258720641
 20
1756.109048140865
 30
0.0
 10
3246.38498069275
 20
1756.091068449114
 30
0.0
 10
3246.692470930276
 20
1756.04637302749
 30
0.0
 10
3246.839510799767
 20
1756.019671189692
 30
0.0
 10
3247.111109241182
 20
1755.962914943242
 30
0.0
 10
3247.235668504571
 20
1755.932918012265
 30
0.0
 10
3247.456070010555
 20
1755.875393687449
 30
0.0
 10
3247.55967822149
 20
1755.845791969531
 30
0.0
 10
3247.742749134002
 20
1755.790461310746
 30
0.0
 10
3247.822225640541
 20
1755.764781774139
 30
0.0
 10
3247.950237516747
 20
1755.72216958564
 30
0.0
 10
3247.998874566652
 20
1755.705234562141
 30
0.0
 10
3248.062833168732
 20
1755.682770479777
 30
0.0
 10
3248.078136562723
 20
1755.67725550063
 30
0.0
 10
3248.078136562723
 20
1755.67725550063
 30
0.0
  0
LINE
  5
AAB
330
1F
100
AcDbEntity
  8
Model
100
AcDbLine
 10
3229.632376415776
 20
1762.67725550063
 30
0.0
 11
3229.632376415776
 21
1771.209478954683
 31
0.0
210
0.0
220
1.0
230
0.0
  0
LINE
  5
AAC
330
1F
100
AcDbEntity
  8
Model
100
AcDbLine
 10
3229.632376415776
 20
1754.145032046575
 30
0.0
 11
3229.632376415776
 21
1762.67725550063
 31
0.0
210
0.0
220
1.0
230
0.0
  0
LINE
  5
AAD
330
1F
100
AcDbEntity
  8
Model
100
AcDbLine
 10
3229.165635921037
 20
1762.67725550063
 30
0.0
 11
3229.165635921037
 21
1753.646139467646
 31
0.0
210
0.0
220
1.0
230
0.0
  0
LINE
  5
AAE
330
1F
100
AcDbEntity
  8
Model
100
AcDbLine
 10
3229.165635921037
 20
1771.708371533613
 30
0.0
 11
3229.165635921037
 21
1762.67725550063
 31
0.0
210
0.0
220
1.0
230
0.0
  0
LINE
  5
AAF
330
1F
100
AcDbEntity
  8
Model
100
AcDbLine
 10
3216.29350802332
 20
1762.67725550063
 30
0.0
 11
3216.29350802332
 21
1772.56651339346
 31
0.0
210
0.0
220
1.0
230
0.0
  0
LINE
  5
AB0
330
1F
100
AcDbEntity
  8
Model
100
AcDbLine
 10
3216.29350802332
 20
1752.787997607799
 30
0.0
 11
3216.29350802332
 21
1762.67725550063
 31
0.0
210
0.0
220
1.0
230
0.0
  0
LINE
  5
AB1
330
1F
100
AcDbEntity
  8
Model
100
AcDbLine
 10
3212.967557497131
 20
1762.67725550063
 30
0.0
 11
3212.967557497131
 21
1752.67725550063
 31
0.0
210
0.0
220
1.0
230
0.0
  0
LINE
  5
AB2
330
1F
100
AcDbEntity
  8
Model
100
AcDbLine
 10
3212.967557497131
 20
1772.677255500629
 30
0.0
 11
3212.967557497131
 21
1762.67725550063
 31
0.0
210
0.0
220
1.0
230
0.0
  0
LINE
  5
AB3
330
1F
100
AcDbEntity
  8
Model
100
AcDbLine
 10
3251.632376415776
 20
1753.67725550063
 30
0.0
 11
3251.632376415776
 21
1771.67725550063
 31
0.0
210
0.0
220
1.0
230
0.0
  0
LINE
  5
AB4
330
1F
100
AcDbEntity
  8
Model
100
AcDbLine
 10
3251.132376415776
 20
1772.17725550063
 30
0.0
 11
3251.132376415776
 21
1753.177255500629
 31
0.0
210
0.0
220
1.0
230
0.0
  0
LINE
  5
AB5
330
1F
100
AcDbEntity
  8
Model
100
AcDbLine
 10
3250.132376415776
 20
1753.177255500629
 30
0.0
 11
3250.132376415776
 21
1772.17725550063
 31
0.0
210
0.0
220
1.0
230
0.0
  0
LINE
  5
AB6
330
1F
100
AcDbEntity
  8
Model
100
AcDbLine
 10
3249.632376415776
 20
1771.67725550063
 30
0.0
 11
3249.632376415776
 21
1753.67725550063
 31
0.0
210
0.0
220
1.0
230
0.0
  0
LINE
  5
AB7
330
1F
100
AcDbEntity
  8
Model
100
AcDbLine
 10
3207.532636401481
 20
1779.677255500629
 30
0.0
 11
3207.532636401481
 21
1801.67725550063
 31
0.0
210
0.0
220
1.0
230
0.0
  0
LINE
  5
AB8
330
1F
100
AcDbEntity
  8
Model
100
AcDbLine
 10
3208.532636401481
 20
1781.677255500629
 30
0.0
 11
3208.532636401481
 21
1799.67725550063
 31
0.0
210
0.0
220
1.0
230
0.0
  0
LINE
  5
AB9
330
1F
100
AcDbEntity
  8
Model
100
AcDbLine
 10
3208.596436163079
 20
1781.677255500629
 30
0.0
 11
3208.596436163081
 21
1799.67725550063
 31
0.0
210
0.0
220
1.0
230
0.0
  0
LINE
  5
ABA
330
1F
100
AcDbEntity
  8
Model
100
AcDbLine
 10
3210.511436919594
 20
1783.100391476316
 30
0.0
 11
3210.511436919595
 21
1798.254119524944
 31
0.0
210
0.0
220
1.0
230
0.0
  0
LINE
  5
ABB
330
1F
100
AcDbEntity
  8
Model
100
AcDbLine
 10
3205.532636401481
 20
1778.029526524709
 30
0.0
 11
3205.532636401481
 21
1803.324736565721
 31
0.0
210
0.0
220
1.0
230
0.0
  0
LINE
  5
ABC
330
1F
100
AcDbEntity
  8
Model
100
AcDbLine
 10
3197.455040385076
 20
1757.67725550063
 30
0.0
 11
3167.632376415776
 21
1757.67725550063
 31
0.0
210
0.0
220
1.0
230
0.0
  0
LINE
  5
ABD
330
1F
100
AcDbEntity
  8
Model
100
AcDbLine
 10
3167.632376415776
 20
1742.677255500629
 30
0.0
 11
3198.601840878348
 21
1742.677255500629
 31
0.0
210
0.0
220
1.0
230
0.0
  0
LINE
  5
ABE
330
1F
100
AcDbEntity
  8
Model
100
AcDbLine
 10
3198.601840878348
 20
1742.677255500629
 30
0.0
 11
3200.632376415776
 21
1742.677255500629
 31
0.0
210
0.0
220
1.0
230
0.0
  0
ELLIPSE
  5
ABF
330
1F
100
AcDbEntity
  8
Model
100
AcDbEllipse
 10
3198.601840878348
 20
1747.677255500629
 30
0.0
 11
0.0
 21
-5.0
 31
0.0
210
0.0
220
0.0
230
1.0
 40
0.9948594037027127
 41
0.0
 42
1.570796326794896
  0
SPLINE
  5
AC0
330
1F
100
AcDbEntity
  8
Model
100
AcDbSpline
210
0.0
220
0.0
230
1.0
 70
     8
 71
     3
 72
    18
 73
    14
 74
     0
 42
0.000000001
 43
0.0000000001
 40
0.0
 40
0.0
 40
0.0
 40
0.0
 40
0.7369010769935449
 40
0.7369010769935449
 40
4.108846754545413
 40
4.108846754545413
 40
6.799231967542906
 40
6.799231967542906
 40
9.704492483000603
 40
9.704492483000603
 40
12.8187022561587
 40
12.8187022561587
 40
15.75737223592844
 40
15.75737223592844
 40
15.75737223592844
 40
15.75737223592844
 10
3198.601840878348
 20
1742.677255500629
 30
0.0
 10
3198.57696658039
 20
1742.677255500629
 30
0.0
 10
3198.551863973436
 20
1742.690697573195
 30
0.0
 10
3198.411003835497
 20
1742.840365270084
 30
0.0
 10
3198.291941953498
 20
1743.246088725754
 30
0.0
 10
3198.085300505933
 20
1744.444364836418
 30
0.0
 10
3197.996272552795
 20
1745.141605118307
 30
0.0
 10
3197.825459938899
 20
1746.885864568551
 30
0.0
 10
3197.744883407263
 20
1747.956328173702
 30
0.0
 10
3197.604874025314
 20
1750.426388455573
 30
0.0
 10
3197.547494113384
 20
1751.843692690098
 30
0.0
 10
3197.473625383845
 20
1754.738616604575
 30
0.0
 10
3197.455040385076
 20
1756.207920510746
 30
0.0
 10
3197.455040385076
 20
1757.67725550063
 30
0.0
  0
LINE
  5
AC1
330
1F
100
AcDbEntity
  8
Model
100
AcDbLine
 10
3197.455040385076
 20
1922.677255500629
 30
0.0
 11
3197.455040385076
 21
1757.67725550063
 31
0.0
210
0.0
220
1.0
230
0.0
  0
LINE
  5
AC2
330
1F
100
AcDbEntity
  8
Model
100
AcDbLine
 10
3197.455040385076
 20
1757.67725550063
 30
0.0
 11
3202.41482094165
 21
1757.67725550063
 31
0.0
210
0.0
220
1.0
230
0.0
  0
LINE
  5
AC3
330
1F
100
AcDbEntity
  8
Model
100
AcDbLine
 10
3197.455040385076
 20
1922.677255500629
 30
0.0
 11
3202.41482094165
 21
1922.677255500629
 31
0.0
210
0.0
220
1.0
230
0.0
  0
ELLIPSE
  5
AC4
330
1F
100
AcDbEntity
  8
Model
100
AcDbEllipse
 10
3198.601840878348
 20
1932.67725550063
 30
0.0
 11
0.0
 21
5.0
 31
0.0
210
0.0
220
0.0
230
1.0
 40
0.9948594037027122
 41
4.712388980384688
 42
6.283185307179585
  0
LINE
  5
AC5
330
1F
100
AcDbEntity
  8
Model
100
AcDbLine
 10
3156.632376415775
 20
1942.67725550063
 30
0.0
 11
3156.632376415775
 21
1922.67725550063
 31
0.0
210
0.0
220
1.0
230
0.0
  0
LINE
  5
AC6
330
1F
100
AcDbEntity
  8
Model
100
AcDbLine
 10
3163.632376415776
 20
1942.67725550063
 30
0.0
 11
3156.632376415775
 21
1942.67725550063
 31
0.0
210
0.0
220
1.0
230
0.0
  0
LINE
  5
AC7
330
1F
100
AcDbEntity
  8
Model
100
AcDbLine
 10
3156.632376415775
 20
1922.67725550063
 30
0.0
 11
3156.632376415775
 21
1757.67725550063
 31
0.0
210
0.0
220
1.0
230
0.0
  0
LINE
  5
AC8
330
1F
100
AcDbEntity
  8
Model
100
AcDbLine
 10
3156.632376415775
 20
1922.67725550063
 30
0.0
 11
3163.632376415776
 21
1922.67725550063
 31
0.0
210
0.0
220
1.0
230
0.0
  0
LINE
  5
AC9
330
1F
100
AcDbEntity
  8
Model
100
AcDbLine
 10
3156.632376415775
 20
1757.67725550063
 30
0.0
 11
3156.632376415775
 21
1737.67725550063
 31
0.0
210
0.0
220
1.0
230
0.0
  0
LINE
  5
ACA
330
1F
100
AcDbEntity
  8
Model
100
AcDbLine
 10
3163.632376415776
 20
1757.67725550063
 30
0.0
 11
3156.632376415775
 21
1757.67725550063
 31
0.0
210
0.0
220
1.0
230
0.0
  0
LINE
  5
ACB
330
1F
100
AcDbEntity
  8
Model
100
AcDbLine
 10
3156.632376415775
 20
1737.67725550063
 30
0.0
 11
3163.632376415776
 21
1737.67725550063
 31
0.0
210
0.0
220
1.0
230
0.0
  0
LINE
  5
ACC
330
1F
100
AcDbEntity
  8
Model
100
AcDbLine
 10
3163.632376415776
 20
1757.67725550063
 30
0.0
 11
3163.632376415776
 21
1737.67725550063
 31
0.0
210
0.0
220
1.0
230
0.0
  0
ARC
  5
ACD
330
1F
100
AcDbEntity
  8
Model
100
AcDbCircle
 10
3163.632376415776
 20
1739.67725550063
 30
0.0
 40
2.0
100
AcDbArc
 50
270.0
 51
0.0
  0
LINE
  5
ACE
330
1F
100
AcDbEntity
  8
Model
100
AcDbLine
 10
3163.632376415776
 20
1922.67725550063
 30
0.0
 11
3163.632376415776
 21
1757.67725550063
 31
0.0
210
0.0
220
1.0
230
0.0
  0
LINE
  5
ACF
330
1F
100
AcDbEntity
  8
Model
100
AcDbLine
 10
3163.632376415776
 20
1757.67725550063
 30
0.0
 11
3165.632376415777
 21
1757.67725550063
 31
0.0
210
0.0
220
1.0
230
0.0
  0
LINE
  5
AD0
330
1F
100
AcDbEntity
  8
Model
100
AcDbLine
 10
3163.632376415776
 20
1942.67725550063
 30
0.0
 11
3163.632376415776
 21
1922.67725550063
 31
0.0
210
0.0
220
1.0
230
0.0
  0
ARC
  5
AD1
330
1F
100
AcDbEntity
  8
Model
100
AcDbCircle
 10
3163.632376415776
 20
1940.67725550063
 30
0.0
 40
2.0
100
AcDbArc
 50
0.0
 51
90.0
  0
LINE
  5
AD2
330
1F
100
AcDbEntity
  8
Model
100
AcDbLine
 10
3163.632376415776
 20
1922.67725550063
 30
0.0
 11
3165.632376415777
 21
1922.67725550063
 31
0.0
210
0.0
220
1.0
230
0.0
  0
LINE
  5
AD3
330
1F
100
AcDbEntity
  8
Model
100
AcDbLine
 10
3165.632376415777
 20
1739.67725550063
 30
0.0
 11
3165.632376415777
 21
1757.67725550063
 31
0.0
210
0.0
220
1.0
230
0.0
  0
LINE
  5
AD4
330
1F
100
AcDbEntity
  8
Model
100
AcDbLine
 10
3165.632376415777
 20
1757.67725550063
 30
0.0
 11
3165.632376415777
 21
1922.67725550063
 31
0.0
210
0.0
220
1.0
230
0.0
  0
LINE
  5
AD5
330
1F
100
AcDbEntity
  8
Model
100
AcDbLine
 10
3165.632376415777
 20
1922.67725550063
 30
0.0
 11
3165.632376415777
 21
1940.67725550063
 31
0.0
210
0.0
220
1.0
230
0.0
  0
SPLINE
  5
AD6
330
1F
100
AcDbEntity
  8
Model
100
AcDbSpline
210
0.0
220
0.0
230
1.0
 70
     8
 71
     3
 72
    16
 73
    12
 74
     0
 42
0.000000001
 43
0.0000000001
 40
0.0
 40
0.0
 40
0.0
 40
0.0
 40
3.318095753297203
 40
3.318095753297203
 40
6.581226467333607
 40
6.581226467333607
 40
9.5263566159946
 40
9.5263566159946
 40
12.73537081078735
 40
12.73537081078735
 40
15.75736548256709
 40
15.75736548256709
 40
15.75736548256709
 40
15.75736548256709
 10
3197.455040385076
 20
1922.677255500629
 30
0.0
 10
3197.455040385076
 20
1924.336303377278
 30
0.0
 10
3197.478803984649
 20
1925.994948559155
 30
0.0
 10
3197.56888531172
 20
1929.103560429106
 30
0.0
 10
3197.634405791872
 20
1930.556014825313
 30
0.0
 10
3197.788537137844
 20
1933.006412647233
 30
0.0
 10
3197.874161448812
 20
1934.034703269201
 30
0.0
 10
3198.06826034945
 20
1935.814438799706
 30
0.0
 10
3198.177991487222
 20
1936.532143148147
 30
0.0
 10
3198.393882316691
 20
1937.449650596531
 30
0.0
 10
3198.499832619384
 20
1937.67725550063
 30
0.0
 10
3198.601840878348
 20
1937.67725550063
 30
0.0
  0
LINE
  5
AD7
330
1F
100
AcDbEntity
  8
Model
100
AcDbLine
 10
3167.632376415776
 20
1922.677255500629
 30
0.0
 11
3197.455040385076
 21
1922.677255500629
 31
0.0
210
0.0
220
1.0
230
0.0
  0
LINE
  5
AD8
330
1F
100
AcDbEntity
  8
Model
100
AcDbLine
 10
3200.632376415776
 20
1937.67725550063
 30
0.0
 11
3198.601840878348
 21
1937.67725550063
 31
0.0
210
0.0
220
1.0
230
0.0
  0
LINE
  5
AD9
330
1F
100
AcDbEntity
  8
Model
100
AcDbLine
 10
3198.601840878348
 20
1937.67725550063
 30
0.0
 11
3167.632376415776
 21
1937.67725550063
 31
0.0
210
0.0
220
1.0
230
0.0
  0
LINE
  5
ADA
330
1F
100
AcDbEntity
  8
Model
100
AcDbLine
 10
3167.632376415776
 20
1742.677255500629
 30
0.0
 11
3167.632376415776
 21
1757.67725550063
 31
0.0
210
0.0
220
1.0
230
0.0
  0
ARC
  5
ADB
330
1F
100
AcDbEntity
  8
Model
100
AcDbCircle
 10
3167.632376415776
 20
1740.677255500629
 30
0.0
 40
2.0
100
AcDbArc
 50
90.0
 51
180.0
  0
LINE
  5
ADC
330
1F
100
AcDbEntity
  8
Model
100
AcDbLine
 10
3167.632376415776
 20
1757.67725550063
 30
0.0
 11
3167.632376415776
 21
1922.677255500629
 31
0.0
210
0.0
220
1.0
230
0.0
  0
LINE
  5
ADD
330
1F
100
AcDbEntity
  8
Model
100
AcDbLine
 10
3165.632376415777
 20
1757.67725550063
 30
0.0
 11
3167.632376415776
 21
1757.67725550063
 31
0.0
210
0.0
220
1.0
230
0.0
  0
ARC
  5
ADE
330
1F
100
AcDbEntity
  8
Model
100
AcDbCircle
 10
3167.632376415776
 20
1939.67725550063
 30
0.0
 40
2.0
100
AcDbArc
 50
180.0
 51
270.0
  0
LINE
  5
ADF
330
1F
100
AcDbEntity
  8
Model
100
AcDbLine
 10
3167.632376415776
 20
1922.677255500629
 30
0.0
 11
3167.632376415776
 21
1937.67725550063
 31
0.0
210
0.0
220
1.0
230
0.0
  0
LINE
  5
AE0
330
1F
100
AcDbEntity
  8
Model
100
AcDbLine
 10
3165.632376415777
 20
1922.677255500629
 30
0.0
 11
3167.632376415776
 21
1922.677255500629
 31
0.0
210
0.0
220
1.0
230
0.0
  0
LINE
  5
AE1
330
1F
100
AcDbEntity
  8
Model
100
AcDbLine
 10
3205.632376415777
 20
1747.677255500629
 30
0.0
 11
3203.57613789686
 21
1747.677255500629
 31
0.0
210
0.0
220
1.0
230
0.0
  0
SPLINE
  5
AE2
330
1F
100
AcDbEntity
  8
Model
100
AcDbSpline
210
0.0
220
0.0
230
1.0
 70
     8
 71
     3
 72
    18
 73
    14
 74
     0
 42
0.000000001
 43
0.0000000001
 40
0.0
 40
0.0
 40
0.0
 40
0.0
 40
0.7369010769935449
 40
0.7369010769935449
 40
4.108846754545413
 40
4.108846754545413
 40
6.799231967542906
 40
6.799231967542906
 40
9.704492483000603
 40
9.704492483000603
 40
12.8187022561587
 40
12.8187022561587
 40
15.75737223592844
 40
15.75737223592844
 40
15.75737223592844
 40
15.75737223592844
 10
3203.57613789686
 20
1747.677255500629
 30
0.0
 10
3203.550948734371
 20
1747.677255500629
 30
0.0
 10
3203.5255283729
 20
1747.68621688234
 30
0.0
 10
3203.382885195241
 20
1747.785995346933
 30
0.0
 10
3203.262316200811
 20
1748.056477650713
 30
0.0
 10
3203.053059038721
 20
1748.855328391155
 30
0.0
 10
3202.962904149465
 20
1749.320155245748
 30
0.0
 10
3202.789929350583
 20
1750.482994879244
 30
0.0
 10
3202.70833286285
 20
1751.196637282678
 30
0.0
 10
3202.566551210245
 20
1752.843344137258
 30
0.0
 10
3202.508444970316
 20
1753.788213626942
 30
0.0
 10
3202.433641193568
 20
1755.718162903259
 30
0.0
 10
3202.41482094165
 20
1756.697698840707
 30
0.0
 10
3202.41482094165
 20
1757.67725550063
 30
0.0
  0
LINE
  5
AE3
330
1F
100
AcDbEntity
  8
Model
100
AcDbLine
 10
3202.41482094165
 20
1757.67725550063
 30
0.0
 11
3202.41482094165
 21
1922.677255500629
 31
0.0
210
0.0
220
1.0
230
0.0
  0
SPLINE
  5
AE4
330
1F
100
AcDbEntity
  8
Model
100
AcDbSpline
210
0.0
220
0.0
230
1.0
 70
     8
 71
     3
 72
    16
 73
    12
 74
     0
 42
0.000000001
 43
0.0000000001
 40
0.0
 40
0.0
 40
0.0
 40
0.0
 40
3.318095753297203
 40
3.318095753297203
 40
6.581226467333607
 40
6.581226467333607
 40
9.5263566159946
 40
9.5263566159946
 40
12.73537081078735
 40
12.73537081078735
 40
15.75736548256709
 40
15.75736548256709
 40
15.75736548256709
 40
15.75736548256709
 10
3202.41482094165
 20
1922.677255500629
 30
0.0
 10
3202.41482094165
 20
1923.783287418395
 30
0.0
 10
3202.438885346281
 20
1924.88905087298
 30
0.0
 10
3202.530106943314
 20
1926.96145878628
 30
0.0
 10
3202.596456796634
 20
1927.929761717085
 30
0.0
 10
3202.7525391723
 20
1929.563360265031
 30
0.0
 10
3202.839247335306
 20
1930.248887346344
 30
0.0
 10
3203.035803184054
 20
1931.435377700015
 30
0.0
 10
3203.14692332357
 20
1931.913847265641
 30
0.0
 10
3203.365546948348
 20
1932.525518897898
 30
0.0
 10
3203.472838394112
 20
1932.67725550063
 30
0.0
 10
3203.57613789686
 20
1932.67725550063
 30
0.0
  0
LINE
  5
AE5
330
1F
100
AcDbEntity
  8
Model
100
AcDbLine
 10
3203.57613789686
 20
1932.67725550063
 30
0.0
 11
3205.632376415777
 21
1932.67725550063
 31
0.0
210
0.0
220
1.0
230
0.0
  0
SPLINE
  5
AE6
330
1F
100
AcDbEntity
  8
Model
100
AcDbSpline
210
0.0
220
0.0
230
1.0
 70
     8
 71
     3
 72
    46
 73
    42
 74
     0
 42
0.000000001
 43
0.0000000001
 40
-59.89197936632432
 40
-59.89197936632432
 40
-59.89197936632432
 40
-59.89197936632432
 40
-59.44569021531494
 40
-59.44569021531494
 40
-56.77915765259547
 40
-56.77915765259547
 40
-54.52197026403155
 40
-54.52197026403155
 40
-52.04514854157536
 40
-52.04514854157536
 40
-49.56833322762482
 40
-49.56833322762482
 40
-47.07583991599421
 40
-47.07583991599421
 40
-45.50535507506895
 40
-45.50535507506895
 40
-43.93487023414365
 40
-43.93487023414365
 40
-42.21330897290818
 40
-42.21330897290818
 40
-39.5835633392371
 40
-39.5835633392371
 40
-36.91399016817889
 40
-36.91399016817889
 40
-35.45700001126898
 40
-35.45700001126898
 40
-34.00000985435906
 40
-34.00000985435906
 40
-32.2954870599397
 40
-32.2954870599397
 40
-29.66546700662945
 40
-29.66546700662945
 40
-27.04992574095725
 40
-27.04992574095725
 40
-25.61050293052929
 40
-25.61050293052929
 40
-24.17108012010133
 40
-24.17108012010133
 40
-22.50050554725643
 40
-22.50050554725643
 40
-22.09302193089976
 40
-22.09302193089976
 40
-22.09302193089976
 40
-22.09302193089976
 10
3205.632373084524
 20
1749.84887992627
 30
0.0
 10
3205.632374829117
 20
1749.848852825039
 30
0.0
 10
3205.632291602983
 20
1749.851462340681
 30
0.0
 10
3205.631115487142
 20
1749.888021733176
 30
0.0
 10
3205.62703079788
 20
1750.01408174544
 30
0.0
 10
3205.614391292297
 20
1750.418917900893
 30
0.0
 10
3205.606642282223
 20
1750.670947454307
 30
0.0
 10
3205.587528088337
 20
1751.322479298231
 30
0.0
 10
3205.575691493873
 20
1751.740551050003
 30
0.0
 10
3205.550250686214
 20
1752.711316741946
 30
0.0
 10
3205.536674027101
 20
1753.263662204258
 30
0.0
 10
3205.510004721741
 20
1754.471138698856
 30
0.0
 10
3205.49666473845
 20
1755.138467989753
 30
0.0
 10
3205.47682358282
 20
1756.298386355156
 30
0.0
 10
3205.469619523685
 20
1756.764081530067
 30
0.0
 10
3205.456616445057
 20
1757.719059673268
 30
0.0
 10
3205.450833357295
 20
1758.206454168729
 30
0.0
 10
3205.440406201079
 20
1759.255012009355
 30
0.0
 10
3205.435947534436
 20
1759.818008420017
 30
0.0
 10
3205.427686434453
 20
1761.259210452621
 30
0.0
 10
3205.425509955757
 20
1762.146659637996
 30
0.0
 10
3205.427038353696
 20
1763.91246692978
 30
0.0
 10
3205.430850052707
 20
1764.808544307326
 30
0.0
 10
3205.441012871157
 20
1766.159045646996
 30
0.0
 10
3205.445409578727
 20
1766.629121997822
 30
0.0
 10
3205.455547436957
 20
1767.546813944179
 30
0.0
 10
3205.461264355762
 20
1767.993016839018
 30
0.0
 10
3205.474910348143
 20
1768.940023548091
 30
0.0
 10
3205.483047543204
 20
1769.43616114219
 30
0.0
 10
3205.504926750021
 20
1770.643278053671
 30
0.0
 10
3205.519304053459
 20
1771.323950789272
 30
0.0
 10
3205.547487604095
 20
1772.538654288213
 30
0.0
 10
3205.561569273026
 20
1773.085537668526
 30
0.0
 10
3205.581389009598
 20
1773.81213778705
 30
0.0
 10
3205.588031103701
 20
1774.046475617015
 30
0.0
 10
3205.600154727444
 20
1774.463940360224
 30
0.0
 10
3205.605621869357
 20
1774.646636854814
 30
0.0
 10
3205.616000443107
 20
1774.987769452446
 30
0.0
 10
3205.620660813085
 20
1775.136902280922
 30
0.0
 10
3205.625072734855
 20
1775.276767550808
 30
0.0
 10
3205.625872141958
 20
1775.302020509825
 30
0.0
 10
3205.626603762301
 20
1775.325074669609
 30
0.0
  0
SPLINE
  5
AE7
330
1F
100
AcDbEntity
  8
Model
100
AcDbSpline
210
0.0
220
0.0
230
1.0
 70
     8
 71
     3
 72
    32
 73
    28
 74
     0
 42
0.000000001
 43
0.0000000001
 40
21.31267735739067
 40
21.31267735739067
 40
21.31267735739067
 40
21.31267735739067
 40
24.39721361483946
 40
24.39721361483946
 40
26.86271307370671
 40
26.86271307370671
 40
30.95108739850083
 40
30.95108739850083
 40
34.18584169793479
 40
34.18584169793479
 40
36.6194192698004
 40
36.6194192698004
 40
39.05299684166601
 40
39.05299684166601
 40
41.49561739196911
 40
41.49561739196911
 40
45.1057794293181
 40
45.1057794293181
 40
48.84441407349047
 40
48.84441407349047
 40
51.3014364093735
 40
51.3014364093735
 40
55.44977307358535
 40
55.44977307358535
 40
58.60554509354711
 40
58.60554509354711
 40
58.76740745436372
 40
58.76740745436372
 40
58.76740745436372
 40
58.76740745436372
 10
3205.626603762301
 20
1775.325074669612
 30
0.0
 10
3205.619760174207
 20
1775.501159438598
 30
0.0
 10
3205.606836691944
 20
1775.83460991717
 30
0.0
 10
3205.575393376337
 20
1776.699337386146
 30
0.0
 10
3205.558552175574
 20
1777.177327289436
 30
0.0
 10
3205.509563856129
 20
1778.672738539037
 30
0.0
 10
3205.474665664953
 20
1779.838982277887
 30
0.0
 10
3205.416987147645
 20
1782.236157496789
 30
0.0
 10
3205.393269879682
 20
1783.402124889582
 30
0.0
 10
3205.360176047449
 20
1785.564701889617
 30
0.0
 10
3205.348693753077
 20
1786.531682550338
 30
0.0
 10
3205.332895970242
 20
1788.506050569742
 30
0.0
 10
3205.328587292489
 20
1789.513314337833
 30
0.0
 10
3205.327790329498
 20
1791.533515296644
 30
0.0
 10
3205.331331794403
 20
1792.546520196556
 30
0.0
 10
3205.349214949322
 20
1795.011291682917
 30
0.0
 10
3205.367995018312
 20
1796.440706739886
 30
0.0
 10
3205.416633888557
 20
1799.147710142053
 30
0.0
 10
3205.446774477282
 20
1800.417671094549
 30
0.0
 10
3205.497136582447
 20
1802.251044665312
 30
0.0
 10
3205.517182485432
 20
1802.907751938096
 30
0.0
 10
3205.567183990968
 20
1804.449954826209
 30
0.0
 10
3205.594243751387
 20
1805.179992292064
 30
0.0
 10
3205.624369055789
 20
1805.975687398175
 30
0.0
 10
3205.631659328464
 20
1806.158979134946
 30
0.0
 10
3205.632359336702
 20
1806.176820260773
 30
0.0
 10
3205.632376204232
 20
1806.17725413229
 30
0.0
 10
3205.632375860667
 20
1806.177251903503
 30
0.0
  0
SPLINE
  5
AE8
330
1F
100
AcDbEntity
  8
Model
100
AcDbSpline
210
0.0
220
0.0
230
1.0
 70
     8
 71
     3
 72
    10
 73
     6
 74
     0
 42
0.000000001
 43
0.0000000001
 40
-0.015038526226548
 40
-0.015038526226548
 40
-0.015038526226548
 40
-0.015038526226548
 40
0.0
 40
0.0
 40
0.699371482936135
 40
0.699371482936135
 40
0.699371482936135
 40
0.699371482936135
 10
3205.626603762301
 20
1775.32507466961
 30
0.0
 10
3205.626630692573
 20
1775.325115595807
 30
0.0
 10
3205.626657216758
 20
1775.325156395683
 30
0.0
 10
3205.627897782233
 20
1775.327087865794
 30
0.0
 10
3205.628272305798
 20
1775.32871373435
 30
0.0
 10
3205.628309478696
 20
1775.3300220286
 30
0.0
  0
LINE
  5
AE9
330
1F
100
AcDbEntity
  8
Model
100
AcDbLine
 10
3243.078136562725
 20
1749.953785143619
 30
0.0
 11
3243.078136562725
 21
1755.67725550063
 31
0.0
210
0.0
220
1.0
230
0.0
  0
LINE
  5
AEA
330
1F
100
AcDbEntity
  8
Model
100
AcDbLine
 10
3248.078136562723
 20
1749.953785143619
 30
0.0
 11
3248.078136562723
 21
1755.67725550063
 31
0.0
210
0.0
220
1.0
230
0.0
  0
LINE
  5
AEB
330
1F
100
AcDbEntity
  8
Model
100
AcDbLine
 10
3249.632376415776
 20
1755.67725550063
 30
0.0
 11
3248.078136562723
 21
1755.67725550063
 31
0.0
210
0.0
220
1.0
230
0.0
  0
LINE
  5
AEC
330
1F
100
AcDbEntity
  8
Model
100
AcDbLine
 10
3243.078136562725
 20
1755.67725550063
 30
0.0
 11
3229.632376415776
 21
1755.67725550063
 31
0.0
210
0.0
220
1.0
230
0.0
  0
LINE
  5
AED
330
1F
100
AcDbEntity
  8
Model
100
AcDbLine
 10
3249.632376415776
 20
1769.67725550063
 30
0.0
 11
3229.632376415776
 21
1769.67725550063
 31
0.0
210
0.0
220
1.0
230
0.0
  0
ARC
  5
AEE
330
1F
100
AcDbEntity
  8
Model
100
AcDbCircle
 10
3229.132376415775
 20
1771.209478954683
 30
0.0
 40
0.5
100
AcDbArc
 50
0.0
 51
86.18592516571192
  0
ARC
  5
AEF
330
1F
100
AcDbEntity
  8
Model
100
AcDbCircle
 10
3229.132376415775
 20
1754.145032046575
 30
0.0
 40
0.5
100
AcDbArc
 50
273.8140748342881
 51
0.0
  0
LINE
  5
AF0
330
1F
100
AcDbEntity
  8
Model
100
AcDbLine
 10
3212.967557497131
 20
1752.67725550063
 30
0.0
 11
3205.552942091769
 21
1752.67725550063
 31
0.0
210
0.0
220
1.0
230
0.0
  0
LINE
  5
AF1
330
1F
100
AcDbEntity
  8
Model
100
AcDbLine
 10
3212.967557497131
 20
1772.677255500629
 30
0.0
 11
3205.552939256572
 21
1772.677255500629
 31
0.0
210
0.0
220
1.0
230
0.0
  0
LINE
  5
AF2
330
1F
100
AcDbEntity
  8
Model
100
AcDbLine
 10
3229.165635921037
 20
1753.646139467647
 30
0.0
 11
3216.29350802332
 21
1752.787997607799
 31
0.0
210
0.0
220
1.0
230
0.0
  0
LINE
  5
AF3
330
1F
100
AcDbEntity
  8
Model
100
AcDbLine
 10
3229.165635921037
 20
1771.708371533613
 30
0.0
 11
3216.29350802332
 21
1772.566513393459
 31
0.0
210
0.0
220
1.0
230
0.0
  0
ARC
  5
AF4
330
1F
100
AcDbEntity
  8
Model
100
AcDbCircle
 10
3212.967557497131
 20
1722.677255500629
 30
0.0
 40
50.0
100
AcDbArc
 50
86.18592516571192
 51
90.0
  0
ARC
  5
AF5
330
1F
100
AcDbEntity
  8
Model
100
AcDbCircle
 10
3212.967557497131
 20
1802.677255500631
 30
0.0
 40
50.0
100
AcDbArc
 50
270.0
 51
273.8140748342881
  0
ARC
  5
AF6
330
1F
100
AcDbEntity
  8
Model
100
AcDbCircle
 10
3251.132376415776
 20
1753.67725550063
 30
0.0
 40
0.5
100
AcDbArc
 50
270.0
 51
0.0
  0
ARC
  5
AF7
330
1F
100
AcDbEntity
  8
Model
100
AcDbCircle
 10
3251.132376415776
 20
1771.67725550063
 30
0.0
 40
0.5
100
AcDbArc
 50
0.0
 51
90.0
  0
LINE
  5
AF8
330
1F
100
AcDbEntity
  8
Model
100
AcDbLine
 10
3251.132376415776
 20
1753.177255500629
 30
0.0
 11
3250.132376415776
 21
1753.177255500629
 31
0.0
210
0.0
220
1.0
230
0.0
  0
LINE
  5
AF9
330
1F
100
AcDbEntity
  8
Model
100
AcDbLine
 10
3251.132376415776
 20
1772.17725550063
 30
0.0
 11
3250.132376415776
 21
1772.17725550063
 31
0.0
210
0.0
220
1.0
230
0.0
  0
ARC
  5
AFA
330
1F
100
AcDbEntity
  8
Model
100
AcDbCircle
 10
3250.132376415776
 20
1771.67725550063
 30
0.0
 40
0.5
100
AcDbArc
 50
90.0
 51
180.0
  0
ARC
  5
AFB
330
1F
100
AcDbEntity
  8
Model
100
AcDbCircle
 10
3250.132376415776
 20
1753.67725550063
 30
0.0
 40
0.5
100
AcDbArc
 50
180.0
 51
270.0
  0
ARC
  5
AFC
330
1F
100
AcDbEntity
  8
Model
100
AcDbCircle
 10
3205.532636401481
 20
1801.677255500629
 30
0.0
 40
2.000000000000055
100
AcDbArc
 50
0.0
 51
89.67202632113389
  0
ARC
  5
AFD
330
1F
100
AcDbEntity
  8
Model
100
AcDbCircle
 10
3205.532636401481
 20
1779.677255500629
 30
0.0
 40
2.000000000000055
100
AcDbArc
 50
270.3276187871438
 51
0.0
  0
ARC
  5
AFE
330
1F
100
AcDbEntity
  8
Model
100
AcDbCircle
 10
3208.532636401481
 20
1800.67725550063
 30
0.0
 40
1.000000000000055
100
AcDbArc
 50
180.000000000026
 51
270.0
  0
ARC
  5
AFF
330
1F
100
AcDbEntity
  8
Model
100
AcDbCircle
 10
3208.532636401481
 20
1780.67725550063
 30
0.0
 40
1.000000000000055
100
AcDbArc
 50
90.0
 51
180.0
  0
LINE
  5
B00
330
1F
100
AcDbEntity
  8
Model
100
AcDbLine
 10
3208.596436163079
 20
1781.677255500629
 30
0.0
 11
3208.532636401481
 21
1781.677255500629
 31
0.0
210
0.0
220
1.0
230
0.0
  0
LINE
  5
B01
330
1F
100
AcDbEntity
  8
Model
100
AcDbLine
 10
3208.596436163081
 20
1799.67725550063
 30
0.0
 11
3208.532636401481
 21
1799.67725550063
 31
0.0
210
0.0
220
1.0
230
0.0
  0
ARC
  5
B02
330
1F
100
AcDbEntity
  8
Model
100
AcDbCircle
 10
3208.596436163081
 20
1797.67725550063
 30
0.0
 40
1.999999999999877
100
AcDbArc
 50
16.7641061425705
 51
90.0
  0
ARC
  5
B03
330
1F
100
AcDbEntity
  8
Model
100
AcDbCircle
 10
3208.596436163081
 20
1783.677255500629
 30
0.0
 40
1.999999999999877
100
AcDbArc
 50
269.9999999999739
 51
343.2358938574296
  0
ARC
  5
B04
330
1F
100
AcDbEntity
  8
Model
100
AcDbCircle
 10
3185.860352792947
 20
1790.828366013026
 30
0.0
 40
25.74524740294445
100
AcDbArc
 50
0.0
 51
16.76410614259529
  0
ARC
  5
B05
330
1F
100
AcDbEntity
  8
Model
100
AcDbCircle
 10
3185.860352792947
 20
1790.526144988234
 30
0.0
 40
25.74524740294446
100
AcDbArc
 50
343.2358938574047
 51
0.0
  0
LINE
  5
B06
330
1F
100
AcDbEntity
  8
Model
100
AcDbLine
 10
3211.605600195892
 20
1790.828366013025
 30
0.0
 11
3211.605600195892
 21
1790.526144988234
 31
0.0
210
0.0
220
1.0
230
0.0
  0
ARC
  5
B07
330
1F
100
AcDbEntity
  8
Model
100
AcDbCircle
 10
3200.632376415776
 20
1747.677255500629
 30
0.0
 40
5.0
100
AcDbArc
 50
270.0
 51
0.0
  0
ARC
  5
B08
330
1F
100
AcDbEntity
  8
Model
100
AcDbCircle
 10
3200.632376415776
 20
1932.67725550063
 30
0.0
 40
5.0
100
AcDbArc
 50
0.0
 51
90.0
  0
LINE
  5
B09
330
1F
100
AcDbEntity
  8
Model
100
AcDbLine
 10
3205.632376415777
 20
1747.677255500629
 30
0.0
 11
3205.632376415777
 21
1749.848828375883
 31
0.0
210
0.0
220
1.0
230
0.0
  0
LINE
  5
B0A
330
1F
100
AcDbEntity
  8
Model
100
AcDbLine
 10
3205.632376415777
 20
1806.177255500629
 30
0.0
 11
3205.632376415777
 21
1932.67725550063
 31
0.0
210
0.0
220
1.0
230
0.0
  0
SPLINE
  5
B0B
330
1F
100
AcDbEntity
  8
Model
100
AcDbSpline
210
0.0
220
0.0
230
1.0
 70
     8
 71
     3
 72
    26
 73
    22
 74
     0
 42
0.000000001
 43
0.0000000001
 40
-59.89197936635195
 40
-59.89197936635195
 40
-59.89197936635195
 40
-59.89197936635195
 40
-55.84769311171243
 40
-55.84769311171243
 40
-51.79181201610685
 40
-51.79181201610685
 40
-47.74401421206738
 40
-47.74401421206738
 40
-43.6883902233655
 40
-43.6883902233655
 40
-39.61086991097629
 40
-39.61086991097629
 40
-35.50798371727239
 40
-35.50798371727239
 40
-31.43177613920236
 40
-31.43177613920236
 40
-27.37637909927999
 40
-27.37637909927999
 40
-23.3284427317677
 40
-23.3284427317677
 40
-21.38578513284439
 40
-21.38578513284439
 40
-21.38578513284439
 40
-21.38578513284439
 10
3205.630846534234
 20
1749.944624767864
 30
0.0
 10
3205.630846534234
 20
1749.944624767862
 30
0.0
 10
3205.623726607228
 20
1750.162225540401
 30
0.0
 10
3205.597901778229
 20
1751.013698622533
 30
0.0
 10
3205.579389596014
 20
1751.643066540243
 30
0.0
 10
3205.537865957204
 20
1753.262960399814
 30
0.0
 10
3205.515381274526
 20
1754.235788780886
 30
0.0
 10
3205.474656538881
 20
1756.451743589579
 30
0.0
 10
3205.456853001007
 20
1757.679365034169
 30
0.0
 10
3205.432812318633
 20
1760.269435070681
 30
0.0
 10
3205.426723488667
 20
1761.644355285276
 30
0.0
 10
3205.42886466242
 20
1764.35054374891
 30
0.0
 10
3205.437209510622
 20
1765.722583435189
 30
0.0
 10
3205.464981236878
 20
1768.283518108642
 30
0.0
 10
3205.484257924317
 20
1769.484593680956
 30
0.0
 10
3205.526452659683
 20
1771.621746257691
 30
0.0
 10
3205.548930271144
 20
1772.544604403509
 30
0.0
 10
3205.588867910125
 20
1774.04456774543
 30
0.0
 10
3205.60583834345
 20
1774.606692507646
 30
0.0
 10
3205.622093448849
 20
1775.134064067431
 30
0.0
 10
3205.625989779717
 20
1775.257157279548
 30
0.0
 10
3205.628303134485
 20
1775.33002521157
 30
0.0
  0
SPLINE
  5
B0C
330
1F
100
AcDbEntity
  8
Model
100
AcDbSpline
210
0.0
220
0.0
230
1.0
 70
     8
 71
     3
 72
    10
 73
     6
 74
     0
 42
0.000000001
 43
0.0000000001
 40
-18.5394387906438
 40
-18.5394387906438
 40
-18.5394387906438
 40
-18.5394387906438
 40
-14.45820078822816
 40
-14.45820078822816
 40
-11.50070403636067
 40
-11.50070403636067
 40
-11.50070403636067
 40
-11.50070403636067
 10
3205.628303134485
 20
1775.330025211577
 30
0.0
 10
3205.623446428656
 20
1775.177044737054
 30
0.0
 10
3205.611475528096
 20
1774.801899870629
 30
0.0
 10
3205.582870801634
 20
1773.814716776483
 30
0.0
 10
3205.568294250708
 20
1773.289583273864
 30
0.0
 10
3205.552942601874
 20
1772.677255500629
 30
0.0
  0
SPLINE
  5
B0D
330
1F
100
AcDbEntity
  8
Model
100
AcDbSpline
210
0.0
220
0.0
230
1.0
 70
     8
 71
     3
 72
    12
 73
     8
 74
     0
 42
0.000000001
 43
0.0000000001
 40
11.52203272575709
 40
11.52203272575709
 40
11.52203272575709
 40
11.52203272575709
 40
14.07226030561083
 40
14.07226030561083
 40
18.12644631549383
 40
18.12644631549383
 40
19.98640208164633
 40
19.98640208164633
 40
19.98640208164633
 40
19.98640208164633
 10
3205.552939225162
 20
1752.67725550063
 30
0.0
 10
3205.566156566279
 20
1752.149992990463
 30
0.0
 10
3205.578771385673
 20
1751.688656430942
 30
0.0
 10
3205.607152503758
 20
1750.693682968369
 30
0.0
 10
3205.620194012695
 20
1750.280947734998
 30
0.0
 10
3205.629380391757
 20
1749.990268349726
 30
0.0
 10
3205.630846534234
 20
1749.944624767866
 30
0.0
 10
3205.630846534234
 20
1749.944624767864
 30
0.0
  0
ARC
  5
B0E
330
1F
100
AcDbEntity
  8
Model
100
AcDbCircle
 10
3202.632376415776
 20
1749.848828375883
 30
0.0
 40
3.0
100
AcDbArc
 50
0.0
 51
1.829887385034061
  0
SPLINE
  5
B0F
330
1F
100
AcDbEntity
  8
Model
100
AcDbSpline
210
0.0
220
0.0
230
1.0
 70
     8
 71
     3
 72
    26
 73
    22
 74
     0
 42
0.000000001
 43
0.0000000001
 40
20.65210746606533
 40
20.65210746606533
 40
20.65210746606533
 40
20.65210746606533
 40
24.6909713853826
 40
24.6909713853826
 40
28.69807797273341
 40
28.69807797273341
 40
32.69283386489465
 40
32.69283386489465
 40
36.67080663379306
 40
36.67080663379306
 40
40.63554293074465
 40
40.63554293074465
 40
44.59857956261321
 40
44.59857956261321
 40
48.57249118968347
 40
48.57249118968347
 40
52.56297550169219
 40
52.56297550169219
 40
56.56720170965917
 40
56.56720170965917
 40
58.7674074543656
 40
58.7674074543656
 40
58.7674074543656
 40
58.7674074543656
 10
3205.628301109793
 20
1775.330592382828
 30
0.0
 10
3205.62280029202
 20
1775.472175039654
 30
0.0
 10
3205.606617931662
 20
1775.884426612898
 30
0.0
 10
3205.559471392569
 20
1777.202110736227
 30
0.0
 10
3205.5287541386
 20
1778.10354440043
 30
0.0
 10
3205.464898488427
 20
1780.301233110171
 30
0.0
 10
3205.431938063494
 20
1781.596045614727
 30
0.0
 10
3205.376714070359
 20
1784.444324327139
 30
0.0
 10
3205.354557098743
 20
1785.99603485063
 30
0.0
 10
3205.329582085212
 20
1789.200452082513
 30
0.0
 10
3205.32676898535
 20
1790.85184146284
 30
0.0
 10
3205.341519468741
 20
1794.093732095717
 30
0.0
 10
3205.359034773066
 20
1795.683491513025
 30
0.0
 10
3205.407728929568
 20
1798.64711310667
 30
0.0
 10
3205.43881961629
 20
1800.020109877921
 30
0.0
 10
3205.502633628547
 20
1802.411542245417
 30
0.0
 10
3205.53519790224
 20
1803.428388032078
 30
0.0
 10
3205.589032945689
 20
1804.999198535281
 30
0.0
 10
3205.610115615505
 20
1805.551310118135
 30
0.0
 10
3205.627329886185
 20
1805.999724364538
 30
0.0
 10
3205.630477943644
 20
1806.079845252374
 30
0.0
 10
3205.630477943644
 20
1806.079845252374
 30
0.0
  0
SPLINE
  5
B10
330
1F
100
AcDbEntity
  8
Model
100
AcDbSpline
210
0.0
220
0.0
230
1.0
 70
     8
 71
     3
 72
    10
 73
     6
 74
     0
 42
0.000000001
 43
0.0000000001
 40
58.7674074543656
 40
58.7674074543656
 40
58.7674074543656
 40
58.7674074543656
 40
62.75485224765768
 40
62.75485224765768
 40
65.82625862777717
 40
65.82625862777717
 40
65.82625862777717
 40
65.82625862777717
 10
3205.630477943644
 20
1806.079845252374
 30
0.0
 10
3205.630477943644
 20
1806.079845252374
 30
0.0
 10
3205.619906390246
 20
1805.81509707745
 30
0.0
 10
3205.586087465513
 20
1804.901562189667
 30
0.0
 10
3205.566370065849
 20
1804.355052619709
 30
0.0
 10
3205.544076047971
 20
1803.677222783984
 30
0.0
  0
SPLINE
  5
B11
330
1F
100
AcDbEntity
  8
Model
100
AcDbSpline
210
0.0
220
0.0
230
1.0
 70
     8
 71
     3
 72
    10
 73
     6
 74
     0
 42
0.000000001
 43
0.0000000001
 40
90.8867378466355
 40
90.8867378466355
 40
90.8867378466355
 40
90.8867378466355
 40
94.63179842579792
 40
94.63179842579792
 40
96.88290299480955
 40
96.88290299480955
 40
96.88290299480955
 40
96.88290299480955
 10
3205.544086655278
 20
1777.677288277976
 30
0.0
 10
3205.57128569365
 20
1776.850588269272
 30
0.0
 10
3205.594521684521
 20
1776.220447866146
 30
0.0
 10
3205.618920163356
 20
1775.572011596864
 30
0.0
 10
3205.625235182322
 20
1775.409504678232
 30
0.0
 10
3205.628301109793
 20
1775.330592382835
 30
0.0
  0
ARC
  5
B12
330
1F
100
AcDbEntity
  8
Model
100
AcDbCircle
 10
3203.132376415776
 20
1806.177255500629
 30
0.0
 40
2.5
100
AcDbArc
 50
357.7669562793087
 51
0.0
  0
LINE
  5
B13
330
1F
100
AcDbEntity
  8
Wymiary
100
AcDbLine
 10
3417.100432674059
 20
1653.214143621282
 30
-88.33092131003375
 11
3374.674025802867
 21
1677.709041049114
 31
-122.9719374614105
210
-0.7071067811865407
220
-0.4082482904638649
230
0.577350269189633
  0
LINE
  5
B14
330
1F
100
AcDbEntity
  8
Wymiary
100
AcDbLine
 10
3417.100432674059
 20
1820.595942711467
 30
30.02588387383867
 11
3374.674025802867
 21
1845.090840139298
 31
-4.615132277538123
210
-0.7071067811865407
220
-0.4082482904638649
230
0.577350269189633
  0
LINE
  5
B15
330
1F
100
AcDbEntity
  8
Wymiary
100
AcDbLine
 10
3381.745093614731
 20
1685.874006858391
 30
-108.5381807316698
 11
3381.745093614731
 21
1828.760908520743
 31
-7.501883623486263
210
-0.7071067811865407
220
-0.4082482904638649
230
0.577350269189633
  0
SOLID
  5
B16
330
1F
100
AcDbEntity
  8
Wymiary
100
AcDbTrace
 10
229.0950623351975
 20
2087.153632226649
 30
-3142.174617039483
 11
232.6305962411318
 21
2090.689166132582
 31
-3142.174617039483
 12
241.4694310059636
 22
2078.314797461818
 32
-3142.174617039483
 13
241.4694310059636
 23
2078.314797461818
 33
-3142.174617039483
210
-0.7071067811865407
220
-0.4082482904638649
230
0.577350269189633
  0
SOLID
  5
B17
330
1F
100
AcDbEntity
  8
Wymiary
100
AcDbTrace
 10
105.3513756275529
 20
2210.897318934294
 30
-3142.174617039484
 11
108.886909533486
 21
2214.432852840228
 31
-3142.174617039484
 12
96.5125408627207
 22
2223.271687605058
 32
-3142.174617039484
 13
96.5125408627207
 23
2223.271687605058
 33
-3142.174617039484
210
-0.7071067811865407
220
-0.4082482904638649
230
0.577350269189633
  0
TEXT
  5
B18
330
1F
100
AcDbEntity
  8
Wymiary
100
AcDbText
 10
185.9509281396283
 20
2190.684435844548
 30
-3098.120711232349
 40
15.0
  1
220
 50
135.0000000000052
210
-0.7071067811865407
220
-0.4082482904638649
230
0.577350269189633
100
AcDbText
  0
LINE
  5
B19
330
1F
100
AcDbEntity
  8
Wymiary
100
AcDbLine
 10
3417.100432674059
 20
1820.595942711467
 30
30.02588387383867
 11
3374.674025802867
 21
1845.090840139298
 31
-4.615132277538123
210
-0.0000000000000008
220
0.8164965809277287
230
0.5773502691896222
  0
LINE
  5
B1A
330
1F
100
AcDbEntity
  8
Wymiary
100
AcDbLine
 10
3501.953246416446
 20
1869.58573756713
 30
-39.25614842891718
 11
3459.526839545251
 21
1894.080634994962
 31
-73.89716458029397
210
-0.0000000000000008
220
0.8164965809277287
230
0.5773502691896222
  0
LINE
  5
B1B
330
1F
100
AcDbEntity
  8
Wymiary
100
AcDbLine
 10
3392.35169533253
 20
1847.132081591617
 30
-7.501883623486263
 11
3455.991305639319
 21
1883.874427733365
 31
-59.46340785055419
210
-0.0000000000000008
220
0.8164965809277287
230
0.5773502691896222
  0
SOLID
  5
B1C
330
1F
100
AcDbEntity
  8
Wymiary
100
AcDbTrace
 10
-3390.583928379566
 20
-1074.335233817768
 30
1503.845814612021
 11
-3394.119462285498
 21
-1070.799699911836
 31
1503.845814612021
 12
-3381.745093614732
 22
-1061.960865147003
 32
1503.845814612021
 13
-3381.745093614732
 23
-1061.960865147003
 33
1503.845814612021
210
-0.0000000000000008
220
0.8164965809277287
230
0.5773502691896222
  0
SOLID
  5
B1D
330
1F
100
AcDbEntity
  8
Wymiary
100
AcDbTrace
 10
-3454.223538686356
 20
-1137.974844124558
 30
1503.845814612022
 11
-3457.759072592287
 21
-1134.439310218626
 31
1503.845814612022
 12
-3466.59790735712
 22
-1146.81367888939
 32
1503.845814612022
 13
-3466.59790735712
 23
-1146.81367888939
 33
1503.845814612022
210
-0.0000000000000008
220
0.8164965809277287
230
0.5773502691896222
  0
TEXT
  5
B1E
330
1F
100
AcDbEntity
  8
Wymiary
100
AcDbText
 10
-3404.106260310375
 20
-859.8583554506969
 30
1666.618674005886
 40
15.0
  1
130
 50
224.9999999999881
210
-0.0000000000000008
220
0.8164965809277287
230
0.5773502691896222
100
AcDbText
  0
LINE
  5
B1F
330
1F
100
AcDbEntity
  8
Wymiary
100
AcDbLine
 10
3512.911574549418
 20
1869.385748605529
 30
-38.97332132709471
 11
3555.337981420609
 21
1893.88064603336
 31
-73.6143374784724
210
-0.0000000000000008
220
0.8164965809277287
230
0.5773502691896222
  0
LINE
  5
B20
330
1F
100
AcDbEntity
  8
Wymiary
100
AcDbLine
 10
3557.105748373577
 20
1843.870230451537
 30
-2.888929502743167
 11
3599.53215524477
 21
1868.36512787937
 31
-37.52994565412087
210
-0.0000000000000008
220
0.8164965809277287
230
0.5773502691896222
  0
LINE
  5
B21
330
1F
100
AcDbEntity
  8
Wymiary
100
AcDbLine
 10
3558.873515326542
 20
1883.674438771764
 30
-59.1805807487317
 11
3581.854485715107
 21
1870.406369331689
 31
-40.41669700006901
210
-0.0000000000000008
220
0.8164965809277287
230
0.5773502691896222
  0
SOLID
  5
B22
330
1F
100
AcDbEntity
  8
Wymiary
100
AcDbTrace
 10
-3560.641282279511
 20
-1137.628453082111
 30
1503.845814612021
 11
-3557.105748373579
 21
-1134.092919176179
 31
1503.845814612021
 12
-3548.266913608748
 22
-1146.467287846943
 32
1503.845814612021
 13
-3548.266913608748
 23
-1146.467287846943
 33
1503.845814612021
210
-0.0000000000000008
220
0.8164965809277287
230
0.5773502691896222
  0
SOLID
  5
B23
330
1F
100
AcDbEntity
  8
Wymiary
100
AcDbTrace
 10
-3583.622252668075
 20
-1114.647482693548
 30
1503.845814612021
 11
-3580.086718762141
 21
-1111.111948787616
 31
1503.845814612021
 12
-3592.461087432908
 22
-1102.273114022783
 32
1503.845814612021
 13
-3592.461087432908
 23
-1102.273114022783
 33
1503.845814612021
210
-0.0000000000000008
220
0.8164965809277287
230
0.5773502691896222
  0
TEXT
  5
B24
330
1F
100
AcDbEntity
  8
Wymiary
100
AcDbText
 10
-3563.860670940338
 20
-906.4098541234017
 30
1666.618674005887
 40
15.0
  1
60
 50
135.0000000000118
210
-0.0000000000000008
220
0.8164965809277287
230
0.5773502691896222
100
AcDbText
  0
LINE
  5
B25
330
1F
100
AcDbEntity
  8
Model
100
AcDbLine
 10
2987.70763423259
 20
1598.296352191074
 30
0.0
 11
2987.70763423259
 21
1615.296352191074
 31
0.0
  0
ARC
  5
B26
330
1F
100
AcDbEntity
  8
Model
100
AcDbCircle
 10
2983.207634232589
 20
1615.296352191074
 30
0.0
 40
4.5
100
AcDbArc
 50
0.0
 51
90.0
  0
LINE
  5
B27
330
1F
100
AcDbEntity
  8
Model
100
AcDbLine
 10
2987.207634232589
 20
1615.296352191074
 30
0.0
 11
2987.70763423259
 21
1615.296352191074
 31
0.0
  0
ARC
  5
B28
330
1F
100
AcDbEntity
  8
Model
100
AcDbCircle
 10
2983.207634232589
 20
1598.296352191074
 30
0.0
 40
4.5
100
AcDbArc
 50
270.0
 51
0.0
  0
LINE
  5
B29
330
1F
100
AcDbEntity
  8
Model
100
AcDbLine
 10
2987.70763423259
 20
1598.296352191074
 30
0.0
 11
2987.207634232589
 21
1598.296352191074
 31
0.0
  0
LINE
  5
B2A
330
1F
100
AcDbEntity
  8
Model
100
AcDbLine
 10
2983.207634232589
 20
1619.796352191074
 30
0.0
 11
2931.20763423259
 21
1619.796352191074
 31
0.0
  0
LINE
  5
B2B
330
1F
100
AcDbEntity
  8
Model
100
AcDbLine
 10
2983.207634232589
 20
1619.296352191074
 30
0.0
 11
2983.207634232589
 21
1619.796352191074
 31
0.0
  0
LINE
  5
B2C
330
1F
100
AcDbEntity
  8
Model
100
AcDbLine
 10
2931.20763423259
 20
1593.796352191074
 30
0.0
 11
2983.207634232589
 21
1593.796352191074
 31
0.0
  0
LINE
  5
B2D
330
1F
100
AcDbEntity
  8
Model
100
AcDbLine
 10
2983.207634232589
 20
1593.796352191074
 30
0.0
 11
2983.207634232589
 21
1594.296352191074
 31
0.0
  0
ARC
  5
B2E
330
1F
100
AcDbEntity
  8
Model
100
AcDbCircle
 10
2931.20763423259
 20
1615.296352191074
 30
0.0
 40
4.5
100
AcDbArc
 50
90.0
 51
180.0
  0
LINE
  5
B2F
330
1F
100
AcDbEntity
  8
Model
100
AcDbLine
 10
2931.20763423259
 20
1619.296352191074
 30
0.0
 11
2931.20763423259
 21
1619.796352191074
 31
0.0
  0
ARC
  5
B30
330
1F
100
AcDbEntity
  8
Model
100
AcDbCircle
 10
2931.20763423259
 20
1598.296352191074
 30
0.0
 40
4.5
100
AcDbArc
 50
180.0
 51
270.0
  0
LINE
  5
B31
330
1F
100
AcDbEntity
  8
Model
100
AcDbLine
 10
2931.20763423259
 20
1593.796352191074
 30
0.0
 11
2931.20763423259
 21
1594.296352191074
 31
0.0
  0
LINE
  5
B32
330
1F
100
AcDbEntity
  8
Model
100
AcDbLine
 10
2926.70763423259
 20
1615.296352191074
 30
0.0
 11
2926.70763423259
 21
1598.296352191074
 31
0.0
  0
LINE
  5
B33
330
1F
100
AcDbEntity
  8
Model
100
AcDbLine
 10
2927.207634232589
 20
1615.296352191074
 30
0.0
 11
2926.70763423259
 21
1615.296352191074
 31
0.0
  0
LINE
  5
B34
330
1F
100
AcDbEntity
  8
Model
100
AcDbLine
 10
2926.70763423259
 20
1598.296352191074
 30
0.0
 11
2927.207634232589
 21
1598.296352191074
 31
0.0
  0
LINE
  5
B35
330
1F
100
AcDbEntity
  8
Model
100
AcDbLine
 10
2987.207634232589
 20
1615.296352191074
 30
0.0
 11
2987.207634232589
 21
1598.296352191074
 31
0.0
  0
LINE
  5
B36
330
1F
100
AcDbEntity
  8
Model
100
AcDbLine
 10
2986.70763423259
 20
1615.296352191074
 30
0.0
 11
2986.70763423259
 21
1598.296352191074
 31
0.0
  0
ARC
  5
B37
330
1F
100
AcDbEntity
  8
Model
100
AcDbCircle
 10
2983.207634232589
 20
1598.296352191074
 30
0.0
 40
3.999999999999998
100
AcDbArc
 50
270.0
 51
0.0
  0
ARC
  5
B38
330
1F
100
AcDbEntity
  8
Model
100
AcDbCircle
 10
2983.207634232589
 20
1598.296352191074
 30
0.0
 40
3.5
100
AcDbArc
 50
270.0
 51
0.0
  0
LINE
  5
B39
330
1F
100
AcDbEntity
  8
Model
100
AcDbLine
 10
2987.207634232589
 20
1598.296352191074
 30
0.0
 11
2986.70763423259
 21
1598.296352191074
 31
0.0
  0
ARC
  5
B3A
330
1F
100
AcDbEntity
  8
Model
100
AcDbCircle
 10
2983.207634232589
 20
1615.296352191074
 30
0.0
 40
3.5
100
AcDbArc
 50
0.0
 51
90.0
  0
ARC
  5
B3B
330
1F
100
AcDbEntity
  8
Model
100
AcDbCircle
 10
2983.207634232589
 20
1615.296352191074
 30
0.0
 40
3.999999999999998
100
AcDbArc
 50
0.0
 51
90.0
  0
LINE
  5
B3C
330
1F
100
AcDbEntity
  8
Model
100
AcDbLine
 10
2986.70763423259
 20
1615.296352191074
 30
0.0
 11
2987.207634232589
 21
1615.296352191074
 31
0.0
  0
LINE
  5
B3D
330
1F
100
AcDbEntity
  8
Model
100
AcDbLine
 10
2983.207634232589
 20
1594.296352191074
 30
0.0
 11
2931.20763423259
 21
1594.296352191074
 31
0.0
  0
LINE
  5
B3E
330
1F
100
AcDbEntity
  8
Model
100
AcDbLine
 10
2983.207634232589
 20
1594.796352191074
 30
0.0
 11
2931.20763423259
 21
1594.796352191074
 31
0.0
  0
LINE
  5
B3F
330
1F
100
AcDbEntity
  8
Model
100
AcDbLine
 10
2983.207634232589
 20
1594.296352191074
 30
0.0
 11
2983.207634232589
 21
1594.796352191074
 31
0.0
  0
LINE
  5
B40
330
1F
100
AcDbEntity
  8
Model
100
AcDbLine
 10
2931.20763423259
 20
1618.796352191074
 30
0.0
 11
2983.207634232589
 21
1618.796352191074
 31
0.0
  0
LINE
  5
B41
330
1F
100
AcDbEntity
  8
Model
100
AcDbLine
 10
2931.20763423259
 20
1619.296352191074
 30
0.0
 11
2983.207634232589
 21
1619.296352191074
 31
0.0
  0
LINE
  5
B42
330
1F
100
AcDbEntity
  8
Model
100
AcDbLine
 10
2983.207634232589
 20
1618.796352191074
 30
0.0
 11
2983.207634232589
 21
1619.296352191074
 31
0.0
  0
ARC
  5
B43
330
1F
100
AcDbEntity
  8
Model
100
AcDbCircle
 10
2931.20763423259
 20
1598.296352191074
 30
0.0
 40
3.999999999999998
100
AcDbArc
 50
180.0
 51
270.0
  0
ARC
  5
B44
330
1F
100
AcDbEntity
  8
Model
100
AcDbCircle
 10
2931.20763423259
 20
1598.296352191074
 30
0.0
 40
3.5
100
AcDbArc
 50
180.0
 51
270.0
  0
LINE
  5
B45
330
1F
100
AcDbEntity
  8
Model
100
AcDbLine
 10
2931.20763423259
 20
1594.296352191074
 30
0.0
 11
2931.20763423259
 21
1594.796352191074
 31
0.0
  0
ARC
  5
B46
330
1F
100
AcDbEntity
  8
Model
100
AcDbCircle
 10
2931.20763423259
 20
1615.296352191074
 30
0.0
 40
3.5
100
AcDbArc
 50
90.0
 51
180.0
  0
ARC
  5
B47
330
1F
100
AcDbEntity
  8
Model
100
AcDbCircle
 10
2931.20763423259
 20
1615.296352191074
 30
0.0
 40
3.999999999999998
100
AcDbArc
 50
90.0
 51
180.0
  0
LINE
  5
B48
330
1F
100
AcDbEntity
  8
Model
100
AcDbLine
 10
2931.20763423259
 20
1618.796352191074
 30
0.0
 11
2931.20763423259
 21
1619.296352191074
 31
0.0
  0
LINE
  5
B49
330
1F
100
AcDbEntity
  8
Model
100
AcDbLine
 10
2927.707634232589
 20
1598.296352191074
 30
0.0
 11
2927.707634232589
 21
1615.296352191074
 31
0.0
  0
LINE
  5
B4A
330
1F
100
AcDbEntity
  8
Model
100
AcDbLine
 10
2927.207634232589
 20
1598.296352191074
 30
0.0
 11
2927.707634232589
 21
1598.296352191074
 31
0.0
  0
LINE
  5
B4B
330
1F
100
AcDbEntity
  8
Model
100
AcDbLine
 10
2927.207634232589
 20
1598.296352191074
 30
0.0
 11
2927.207634232589
 21
1615.296352191074
 31
0.0
  0
LINE
  5
B4C
330
1F
100
AcDbEntity
  8
Model
100
AcDbLine
 10
2927.707634232589
 20
1615.296352191074
 30
0.0
 11
2927.207634232589
 21
1615.296352191074
 31
0.0
  0
LINE
  5
B4D
330
1F
100
AcDbEntity
  8
Model
100
AcDbLine
 10
3510.434033128903
 20
1836.520221033746
 30
-0.0000000000006821
 11
3498.413217848732
 21
1843.460441971632
 31
-0.0000000000006821
210
-0.0000000000000001
220
0.816496580927726
230
0.5773502691896258
  0
ELLIPSE
  5
B4E
330
1F
100
AcDbEntity
  8
Model
100
AcDbEllipse
 10
3495.231237333392
 20
1841.623324664545
 30
-0.0000000000002274
 11
-4.5
 21
0.0000000000002094
 31
-0.0000000000000004
210
-0.0000000000000001
220
0.0000000000000002
230
1.0
 40
0.5773502691896259
 41
3.926990816987295
 42
5.497787143782191
  0
ELLIPSE
  5
B4F
330
1F
100
AcDbEntity
  8
Model
100
AcDbEllipse
 10
3498.413217848732
 20
1843.052193681169
 30
-0.0000000000006821
 11
-0.2500000000000001
 21
-0.4330127018922193
 31
0.0000000000000001
210
0.0000000000000001
220
0.0000000000000002
230
1.0
 40
0.577350269189626
 41
3.926990816987241
 42
5.139467566776637
  0
ELLIPSE
  5
B50
330
1F
100
AcDbEntity
  8
Model
100
AcDbEllipse
 10
3507.252052613564
 20
1834.683103726659
 30
-0.0000000000006821
 11
4.5
 21
0.0000000000002085
 31
0.0
210
0.0
220
0.0000000000000002
230
1.0
 40
0.5773502691896259
 41
5.497787143782081
 42
7.068583470576982
  0
ELLIPSE
  5
B51
330
1F
100
AcDbEntity
  8
Model
100
AcDbEllipse
 10
3510.434033128903
 20
1836.111972743283
 30
-0.0000000000009095
 11
-0.2500000000000001
 21
-0.4330127018922193
 31
0.0000000000000001
210
0.0000000000000001
220
0.0000000000000002
230
1.0
 40
0.577350269189626
 41
3.926990816987261
 42
5.145787318601761
  0
LINE
  5
B52
330
1F
100
AcDbEntity
  8
Model
100
AcDbLine
 10
3492.049256818053
 20
1843.460441971632
 30
-0.0000000000006821
 11
3455.279704196352
 21
1822.231530867511
 31
-0.0000000000006821
210
-0.0000000000000001
220
0.816496580927726
230
0.5773502691896258
  0
ELLIPSE
  5
B53
330
1F
100
AcDbEntity
  8
Model
100
AcDbEllipse
 10
3492.049256818053
 20
1843.052193681169
 30
-0.0000000000006821
 11
-0.2500000000000001
 21
0.4330127018922196
 31
-0.0000000000000001
210
-0.0000000000000001
220
0.0000000000000002
230
1.0
 40
0.5773502691896258
 41
4.285310393992248
 42
5.497787143782136
  0
LINE
  5
B54
330
1F
100
AcDbEntity
  8
Model
100
AcDbLine
 10
3473.664480507204
 20
1811.617075315451
 30
0.0
 11
3510.434033128903
 21
1832.845986419571
 31
0.0
210
-0.0000000000000001
220
0.816496580927726
230
0.5773502691896258
  0
ELLIPSE
  5
B55
330
1F
100
AcDbEntity
  8
Model
100
AcDbEllipse
 10
3510.434033128903
 20
1832.437738129108
 30
-0.0000000000011369
 11
-0.2500000000000001
 21
0.4330127018922196
 31
-0.0000000000000001
210
-0.0000000000000001
220
0.0000000000000002
230
1.0
 40
0.5773502691896258
 41
5.497787143782145
 42
6.283185307179675
  0
ELLIPSE
  5
B56
330
1F
100
AcDbEntity
  8
Model
100
AcDbEllipse
 10
3458.461684711693
 20
1820.394413560424
 30
-0.0000000000002274
 11
-4.5
 21
-0.0000000000002085
 31
0.0
210
0.0
220
0.0000000000000002
230
1.0
 40
0.5773502691896259
 41
5.497787143782081
 42
7.068583470576982
  0
ELLIPSE
  5
B57
330
1F
100
AcDbEntity
  8
Model
100
AcDbEllipse
 10
3455.279704196351
 20
1821.823282577048
 30
-0.0000000000004547
 11
-0.2500000000000001
 21
0.4330127018922196
 31
-0.0000000000000001
210
-0.0000000000000001
220
0.0000000000000002
230
1.0
 40
0.5773502691896258
 41
4.278990642168076
 42
5.497787143782148
  0
ELLIPSE
  5
B58
330
1F
100
AcDbEntity
  8
Model
100
AcDbEllipse
 10
3470.482499991863
 20
1813.454192622539
 30
-0.0000000000006821
 11
4.5
 21
-0.0000000000002094
 31
0.0000000000000004
210
-0.0000000000000001
220
0.0000000000000002
230
1.0
 40
0.5773502691896259
 41
3.926990816987293
 42
5.497787143782191
  0
ELLIPSE
  5
B59
330
1F
100
AcDbEntity
  8
Model
100
AcDbEllipse
 10
3473.664480507204
 20
1811.208827024987
 30
-0.0000000000011369
 11
-0.2500000000000001
 21
0.4330127018922196
 31
-0.0000000000000001
210
-0.0000000000000001
220
0.0000000000000002
230
1.0
 40
0.5773502691896258
 41
5.497787143782134
 42
6.28318530717966
  0
LINE
  5
B5A
330
1F
100
AcDbEntity
  8
Model
100
AcDbLine
 10
3455.279704196354
 20
1818.557296253336
 30
-0.0000000000009095
 11
3467.300519476524
 21
1811.617075315451
 31
0.0
210
-0.0000000000000001
220
0.816496580927726
230
0.5773502691896258
  0
ELLIPSE
  5
B5B
330
1F
100
AcDbEntity
  8
Model
100
AcDbEllipse
 10
3455.279704196352
 20
1818.149047962872
 30
-0.0000000000011369
 11
0.2500000000000001
 21
0.4330127018922193
 31
-0.0000000000000001
210
0.0000000000000001
220
0.0000000000000002
230
1.0
 40
0.577350269189626
 41
0.0000000000012324
 42
0.7853981633974434
  0
ELLIPSE
  5
B5C
330
1F
100
AcDbEntity
  8
Model
100
AcDbEllipse
 10
3467.300519476524
 20
1811.208827024987
 30
-0.0000000000006821
 11
0.2500000000000001
 21
0.4330127018922193
 31
-0.0000000000000001
210
0.0000000000000001
220
0.0000000000000002
230
1.0
 40
0.577350269189626
 41
0.000000000001211
 42
0.7853981633974431
  0
LINE
  5
B5D
330
1F
100
AcDbEntity
  8
Model
100
AcDbLine
 10
3497.706111067545
 20
1843.052193681169
 30
-0.0000000000002274
 11
3509.726926347716
 21
1836.111972743283
 31
-0.0000000000009095
210
-0.0000000000000001
220
0.816496580927726
230
0.5773502691896258
  0
ELLIPSE
  5
B5E
330
1F
100
AcDbEntity
  8
Model
100
AcDbEllipse
 10
3507.252052613564
 20
1834.683103726659
 30
-0.0000000000006821
 11
3.5
 21
0.0000000000001619
 31
0.0000000000000001
210
0.0
220
0.0000000000000002
230
1.0
 40
0.577350269189626
 41
5.497787143782087
 42
7.068583470576982
  0
ELLIPSE
  5
B5F
330
1F
100
AcDbEntity
  8
Model
100
AcDbEllipse
 10
3509.726926347717
 20
1835.70372445282
 30
-0.0000000000006821
 11
0.2500000000000001
 21
0.4330127018922193
 31
-0.0000000000000001
210
0.0000000000000001
220
0.0000000000000002
230
1.0
 40
0.577350269189626
 41
0.000000000001206
 42
0.7853981633974483
  0
ELLIPSE
  5
B60
330
1F
100
AcDbEntity
  8
Model
100
AcDbEllipse
 10
3495.231237333392
 20
1841.623324664545
 30
-0.0000000000002274
 11
3.5
 21
-0.0000000000001626
 31
-0.0000000000000004
210
0.0000000000000001
220
0.0000000000000002
230
1.0
 40
0.5773502691896259
 41
0.7853981633975017
 42
2.356194490192395
  0
ELLIPSE
  5
B61
330
1F
100
AcDbEntity
  8
Model
100
AcDbEllipse
 10
3497.706111067542
 20
1842.643945390704
 30
-0.0000000000002274
 11
0.2500000000000001
 21
0.4330127018922193
 31
-0.0000000000000001
210
0.0000000000000001
220
0.0000000000000002
230
1.0
 40
0.577350269189626
 41
0.000000000001206
 42
0.7853981633974483
  0
LINE
  5
B62
330
1F
100
AcDbEntity
  8
Model
100
AcDbLine
 10
3509.726926347717
 20
1833.254234710037
 30
-0.0000000000009095
 11
3472.957373726015
 21
1812.025323605915
 31
-0.0000000000002274
210
-0.0000000000000001
220
0.816496580927726
230
0.5773502691896258
  0
ELLIPSE
  5
B63
330
1F
100
AcDbEntity
  8
Model
100
AcDbEllipse
 10
3509.726926347716
 20
1832.845986419571
 30
-0.0000000000009095
 11
-0.2500000000000001
 21
0.4330127018922196
 31
-0.0000000000000001
210
-0.0000000000000001
220
0.0000000000000002
230
1.0
 40
0.5773502691896258
 41
4.285310393992252
 42
5.497787143782123
  0
LINE
  5
B64
330
1F
100
AcDbEntity
  8
Model
100
AcDbLine
 10
3455.986810977539
 20
1821.823282577048
 30
-0.0000000000009095
 11
3492.75636359924
 21
1843.052193681169
 31
-0.0000000000011369
210
-0.0000000000000001
220
0.816496580927726
230
0.5773502691896258
  0
ELLIPSE
  5
B65
330
1F
100
AcDbEntity
  8
Model
100
AcDbEllipse
 10
3492.756363599238
 20
1842.643945390705
 30
-0.0000000000006821
 11
-0.2500000000000001
 21
0.4330127018922196
 31
-0.0000000000000001
210
-0.0000000000000001
220
0.0000000000000002
230
1.0
 40
0.5773502691896258
 41
5.497787143782136
 42
6.283185307179675
  0
ELLIPSE
  5
B66
330
1F
100
AcDbEntity
  8
Model
100
AcDbEllipse
 10
3470.482499991863
 20
1813.454192622539
 30
-0.0000000000006821
 11
-3.5
 21
0.0000000000001626
 31
0.0000000000000004
210
0.0000000000000001
220
0.0000000000000002
230
1.0
 40
0.5773502691896259
 41
0.7853981633975017
 42
2.356194490192397
  0
ELLIPSE
  5
B67
330
1F
100
AcDbEntity
  8
Model
100
AcDbEllipse
 10
3472.957373726015
 20
1811.617075315451
 30
-0.0000000000011369
 11
-0.2500000000000001
 21
0.4330127018922196
 31
-0.0000000000000001
210
-0.0000000000000001
220
0.0000000000000002
230
1.0
 40
0.5773502691896258
 41
4.291308710599906
 42
5.497787143782134
  0
ELLIPSE
  5
B68
330
1F
100
AcDbEntity
  8
Model
100
AcDbEllipse
 10
3458.461684711693
 20
1820.394413560424
 30
-0.0000000000002274
 11
-3.5
 21
-0.0000000000001619
 31
-0.0000000000000001
210
0.0
220
0.0000000000000002
230
1.0
 40
0.577350269189626
 41
5.497787143782085
 42
7.06858347057698
  0
ELLIPSE
  5
B69
330
1F
100
AcDbEntity
  8
Model
100
AcDbEllipse
 10
3455.986810977539
 20
1821.415034286583
 30
-0.0000000000009095
 11
-0.2500000000000001
 21
0.4330127018922196
 31
-0.0000000000000001
210
-0.0000000000000001
220
0.0000000000000002
230
1.0
 40
0.5773502691896258
 41
5.497787143782148
 42
6.283185307179672
  0
LINE
  5
B6A
330
1F
100
AcDbEntity
  8
Model
100
AcDbLine
 10
3468.00762625771
 20
1812.025323605915
 30
-0.0000000000006821
 11
3455.986810977539
 21
1818.9655445438
 31
-0.0000000000004547
210
-0.0000000000000001
220
0.816496580927726
230
0.5773502691896258
  0
ELLIPSE
  5
B6B
330
1F
100
AcDbEntity
  8
Model
100
AcDbEllipse
 10
3468.00762625771
 20
1811.617075315451
 30
-0.0000000000006821
 11
-0.2500000000000001
 21
-0.4330127018922193
 31
0.0000000000000001
210
0.0000000000000001
220
0.0000000000000002
230
1.0
 40
0.577350269189626
 41
3.926990816987236
 42
5.133469250169065
  0
ELLIPSE
  5
B6C
330
1F
100
AcDbEntity
  8
Model
100
AcDbEllipse
 10
3455.986810977539
 20
1818.557296253337
 30
-0.0000000000004547
 11
-0.2500000000000001
 21
-0.4330127018922193
 31
0.0000000000000001
210
0.0000000000000001
220
0.0000000000000002
230
1.0
 40
0.577350269189626
 41
3.926990816987221
 42
5.139467566776636
  0
SPLINE
  5
B6D
330
1F
100
AcDbEntity
  8
Model
100
AcDbSpline
210
0.0000000000039483
220
-0.0000000000026794
230
-1.0
 70
     8
 71
     3
 72
    16
 73
    12
 74
     0
 42
0.000000001
 43
0.0000000001
 40
0.7853981633974479
 40
0.7853981633974479
 40
0.7853981633974479
 40
0.7853981633974479
 40
0.9424777960769375
 40
0.9424777960769375
 40
1.099557428756426
 40
1.099557428756426
 40
1.256637061435915
 40
1.256637061435915
 40
1.413716694115406
 40
1.413716694115406
 40
1.570796326794896
 40
1.570796326794896
 40
1.570796326794896
 40
1.570796326794896
 10
3511.252052613565
 20
1834.274855436195
 30
-0.0000000000006821
 10
3511.252052613565
 20
1834.184165467983
 30
-0.0000000000002274
 10
3511.239887409239
 20
1834.093375771435
 30
-0.0000000000011369
 10
3511.189042459847
 20
1833.908033416106
 30
-0.0000000000002274
 10
3511.150208253714
 20
1833.813425039355
 30
-0.0000000000006821
 10
3511.041933408743
 20
1833.621031313716
 30
-0.0000000000009095
 10
3510.972417437195
 20
1833.523333817933
 30
0.0000000000002274
 10
3510.800972271882
 20
1833.329066951689
 30
-0.0000000000004547
 10
3510.699058580435
 20
1833.232569056756
 30
0.0
 10
3510.464059741834
 20
1833.045826178678
 30
-0.0000000000004547
 10
3510.331006284999
 20
1832.955605822236
 30
-0.0000000000002274
 10
3510.184033128903
 20
1832.870750831
 30
-0.0000000000011369
  0
LINE
  5
B6E
330
1F
100
AcDbEntity
  8
Model
100
AcDbLine
 10
3510.184033128903
 20
1832.870750831
 30
-0.0000000000011369
 11
3473.414480507204
 21
1811.64183972688
 31
-0.0000000000011369
210
-0.0000000000000001
220
0.816496580927726
230
0.5773502691896258
  0
SPLINE
  5
B6F
330
1F
100
AcDbEntity
  8
Model
100
AcDbSpline
210
0.0000000000023359
220
0.0000000000017768
230
1.0
 70
     8
 71
     3
 72
    16
 73
    12
 74
     0
 42
0.000000001
 43
0.0000000001
 40
3.141592653589792
 40
3.141592653589792
 40
3.141592653589792
 40
3.141592653589792
 40
3.298672286269281
 40
3.298672286269281
 40
3.455751918948771
 40
3.455751918948771
 40
3.612831551628261
 40
3.612831551628261
 40
3.769911184307751
 40
3.769911184307751
 40
3.926990816987241
 40
3.926990816987241
 40
3.926990816987241
 40
3.926990816987241
 10
3455.529704196352
 20
1818.582060664765
 30
-0.0000000000006821
 10
3455.382731040257
 20
1818.666915656001
 30
-0.0000000000009095
 10
3455.249677583421
 20
1818.757136012443
 30
0.0000000000004547
 10
3455.014678744819
 20
1818.943878890522
 30
-0.0000000000009095
 10
3454.912765053371
 20
1819.040376785453
 30
-0.0000000000004547
 10
3454.741319888058
 20
1819.234643651697
 30
0.0
 10
3454.671803916511
 20
1819.33234114748
 30
0.0000000000002274
 10
3454.563529071538
 20
1819.52473487312
 30
0.0000000000002274
 10
3454.524694865406
 20
1819.61934324987
 30
0.0
 10
3454.473849916017
 20
1819.8046856052
 30
-0.0000000000004547
 10
3454.461684711694
 20
1819.895475301748
 30
-0.0000000000004547
 10
3454.461684711694
 20
1819.98616526996
 30
-0.0000000000006821
  0
SPLINE
  5
B70
330
1F
100
AcDbEntity
  8
Model
100
AcDbSpline
210
0.0000000000001551
220
0.0000000000003034
230
1.0
 70
     8
 71
     3
 72
    18
 73
    14
 74
     0
 42
0.000000001
 43
0.0000000001
 40
1.570796326794896
 40
1.570796326794896
 40
1.570796326794896
 40
1.570796326794896
 40
1.869821162768251
 40
1.869821162768251
 40
2.172327323609879
 40
2.172327323609879
 40
2.477696975503215
 40
2.477696975503215
 40
2.783347904853639
 40
2.783347904853639
 40
3.086584609812669
 40
3.086584609812669
 40
3.141592653589792
 40
3.141592653589792
 40
3.141592653589792
 40
3.141592653589792
 10
3473.414480507204
 20
1811.64183972688
 30
-0.0000000000011369
 10
3473.134694877809
 20
1811.480305418435
 30
-0.0000000000011369
 10
3472.804229971394
 20
1811.338583333537
 30
-0.0000000000009095
 10
3472.071367966919
 20
1811.114864453959
 30
0.0000000000002274
 10
3471.668379331515
 20
1811.033523860025
 30
0.0000000000002274
 10
3470.831419377096
 20
1810.943660780723
 30
-0.0000000000004547
 10
3470.397320391189
 20
1810.935817726514
 30
-0.0000000000004547
 10
3469.546776503616
 20
1810.995778302545
 30
0.0000000000004547
 10
3469.130477610387
 20
1811.063668896584
 30
-0.0000000000002274
 10
3468.363197722662
 20
1811.265308827152
 30
-0.0000000000009095
 10
3468.011908782156
 20
1811.398591233626
 30
-0.0000000000006821
 10
3467.655157139476
 20
1811.583062741823
 30
0.0000000000002274
 10
3467.601988312214
 20
1811.612124180739
 30
0.0
 10
3467.550519476524
 20
1811.641839726879
 30
-0.0000000000002274
  0
LINE
  5
B71
330
1F
100
AcDbEntity
  8
Model
100
AcDbLine
 10
3467.550519476524
 20
1811.641839726879
 30
-0.0000000000002274
 11
3455.529704196352
 21
1818.582060664765
 31
-0.0000000000006821
210
-0.0000000000000001
220
0.816496580927726
230
0.5773502691896258
  0
LINE
  5
B72
330
1F
100
AcDbEntity
  8
Model
100
AcDbLine
 10
3509.976926347716
 20
1836.136737154711
 30
-0.0000000000004547
 11
3497.956111067545
 21
1843.076958092597
 31
-0.0000000000009095
210
-0.0000000000000001
220
0.816496580927726
230
0.5773502691896258
  0
SPLINE
  5
B73
330
1F
100
AcDbEntity
  8
Model
100
AcDbSpline
210
-0.0000000000002786
220
-0.0000000000003129
230
1.0
 70
     8
 71
     3
 72
    16
 73
    12
 74
     0
 42
0.000000001
 43
0.0000000001
 40
0.0
 40
0.0
 40
0.0
 40
0.0
 40
0.1570796326794895
 40
0.1570796326794895
 40
0.3141592653589791
 40
0.3141592653589791
 40
0.4712388980384687
 40
0.4712388980384687
 40
0.6283185307179582
 40
0.6283185307179582
 40
0.7853981633974479
 40
0.7853981633974479
 40
0.7853981633974479
 40
0.7853981633974479
 10
3509.976926347716
 20
1836.136737154711
 30
-0.0000000000004547
 10
3510.126145387499
 20
1836.050585501925
 30
-0.0000000000006821
 10
3510.265970529562
 20
1835.956342569113
 30
-0.0000000000013642
 10
3510.523393512422
 20
1835.75178024451
 30
0.0
 10
3510.641018052913
 20
1835.641440191842
 30
-0.0000000000004547
 10
3510.849907079276
 20
1835.404745173525
 30
-0.0000000000002274
 10
3510.941183212832
 20
1835.278323100088
 30
-0.0000000000004547
 10
3511.091789839689
 20
1835.010709971165
 30
-0.0000000000004547
 10
3511.151042376554
 20
1834.869435724682
 30
-0.0000000000004547
 10
3511.231251658134
 20
1834.577053150884
 30
-0.0000000000002274
 10
3511.252052613565
 20
1834.426005383214
 30
-0.0000000000004547
 10
3511.252052613565
 20
1834.274855436195
 30
-0.0000000000006821
  0
SPLINE
  5
B74
330
1F
100
AcDbEntity
  8
Model
100
AcDbSpline
210
0.0000000000001669
220
-0.0000000000002904
230
1.0
 70
     8
 71
     3
 72
    16
 73
    12
 74
     0
 42
0.000000001
 43
0.0000000001
 40
4.712388980384688
 40
4.712388980384688
 40
4.712388980384688
 40
4.712388980384688
 40
5.026548245743668
 40
5.026548245743668
 40
5.340707511102648
 40
5.340707511102648
 40
5.654866776461627
 40
5.654866776461627
 40
5.969026041820606
 40
5.969026041820606
 40
6.283185307179585
 40
6.283185307179585
 40
6.283185307179585
 40
6.283185307179585
 10
3492.506363599237
 20
1843.076958092597
 30
0.0
 10
3492.804801678803
 20
1843.249261398169
 30
-0.0000000000004547
 10
3493.140970478141
 20
1843.38927242822
 30
-0.0000000000009095
 10
3493.861354030227
 20
1843.601191011429
 30
-0.0000000000006821
 10
3494.24557467067
 20
1843.672944790822
 30
-0.0000000000011369
 10
3495.030795379295
 20
1843.744747963064
 30
-0.0000000000002274
 10
3495.431679287488
 20
1843.744747963064
 30
-0.0000000000002274
 10
3496.216899996115
 20
1843.672944790822
 30
0.0000000000002274
 10
3496.601120636556
 20
1843.601191011429
 30
-0.0000000000002274
 10
3497.321504188646
 20
1843.389272428221
 30
-0.0000000000004547
 10
3497.657672987982
 20
1843.249261398168
 30
-0.0000000000004547
 10
3497.956111067545
 20
1843.076958092597
 30
-0.0000000000009095
  0
LINE
  5
B75
330
1F
100
AcDbEntity
  8
Model
100
AcDbLine
 10
3492.506363599237
 20
1843.076958092597
 30
0.0
 11
3455.736810977539
 21
1821.848046988475
 31
-0.0000000000011369
210
-0.0000000000000001
220
0.816496580927726
230
0.5773502691896258
  0
SPLINE
  5
B76
330
1F
100
AcDbEntity
  8
Model
100
AcDbSpline
210
0.0000000000000471
220
0.000000000000212
230
1.0
 70
     8
 71
     3
 72
    16
 73
    12
 74
     0
 42
0.000000001
 43
0.0000000001
 40
3.926990816987241
 40
3.926990816987241
 40
3.926990816987241
 40
3.926990816987241
 40
4.084070449666731
 40
4.084070449666731
 40
4.241150082346219
 40
4.241150082346219
 40
4.398229715025709
 40
4.398229715025709
 40
4.5553093477052
 40
4.5553093477052
 40
4.712388980384688
 40
4.712388980384688
 40
4.712388980384688
 40
4.712388980384688
 10
3454.461684711694
 20
1819.98616526996
 30
-0.0000000000006821
 10
3454.461684711692
 20
1820.137315216979
 30
0.0000000000004547
 10
3454.482485667119
 20
1820.288362984647
 30
0.0000000000002274
 10
3454.562694948699
 20
1820.580745558447
 30
-0.0000000000002274
 10
3454.621947485569
 20
1820.722019804931
 30
-0.0000000000009095
 10
3454.772554112424
 20
1820.989632933853
 30
-0.0000000000009095
 10
3454.863830245981
 20
1821.11605500729
 30
0.0000000000002274
 10
3455.072719272341
 20
1821.352750025607
 30
-0.0000000000002274
 10
3455.190343812833
 20
1821.463090078275
 30
0.0
 10
3455.447766795694
 20
1821.667652402878
 30
-0.0000000000004547
 10
3455.587591937758
 20
1821.76189533569
 30
-0.0000000000011369
 10
3455.736810977539
 20
1821.848046988475
 30
-0.0000000000011369
  0
HATCH
  5
BF7
330
1F
100
AcDbEntity
  8
AM_8
 62
    18
420
        0
100
AcDbHatch
 10
0.0
 20
0.0
 30
0.0
210
0.0
220
0.0
230
1.0
  2
SOLID
 70
     1
 71
     0
 91
        1
 92
        1
 93
        4
 72
     1
 10
2770.35974245959
 20
1336.220256496004
 11
2927.191587971422
 21
1336.220256496004
 72
     1
 10
2927.191587971422
 20
1336.220256496004
 11
2927.191587971422
 21
1484.376628194589
 72
     1
 10
2927.191587971422
 20
1484.376628194589
 11
2770.35974245959
 21
1484.376628194589
 72
     1
 10
2770.35974245959
 20
1484.376628194589
 11
2770.35974245959
 21
1336.220256496004
 97
        0
 75
     0
 76
     1
 98
        1
 10
452.4078191391422
 20
-81.06906440404236
450
        0
451
        0
460
0.0
461
0.0
452
        0
462
0.0
453
        0
470

1001
GENIUS_GENODEF_13
1002
{
1000
HIER
1070
     0
1002
}
1002
{
1000
MANEDIT
1070
     0
1002
}
1002
{
1000
NOSEL
1070
     0
1002
}
1002
{
1000
BEHIND
1070
     0
1002
}
1002
{
1000
OTHER
1070
     0
1002
}
1002
{
1000
REACTOR
1002
}
1001
GENIUS_GENOBJ-N-HTC_13
1002
{
1000
OWNER
1000
GEN
1002
}
1001
GENIUS_GENHATCH_13
1002
{
1000
DATA
1040
45.0
1042
2.5
1000
_U
1070
     0
1011
2856.127158425505
1021
1434.583025816156
1031
0.0
1002
}
1002
{
1000
UCS
1010
0.0
1020
0.0
1030
0.0
1010
1.0
1020
0.0
1030
0.0
1010
0.0
1020
1.0
1030
0.0
1002
}
1001
ACAD
1010
0.0
1020
0.0
1030
0.0
  0
MTEXT
  5
BF8
330
1F
100
AcDbEntity
  8
0
100
AcDbMText
 10
2804.215565716848
 20
1427.801840000006
 30
0.0
 40
25.0
 41
102.9208977138751
 46
0.0
 71
     1
 72
     5
  1
impeco
 73
     1
 44
1.0
1001
ACAD
1000
ACAD_MTEXT_COLUMN_INFO_BEGIN
1070
    75
1070
     2
1070
    79
1070
     0
1070
    76
1070
     1
1070
    78
1070
     0
1070
    48
1040
102.9208977138751
1070
    49
1040
12.5
1070
    50
1070
     1
1040
0.0
1000
ACAD_MTEXT_COLUMN_INFO_END
  0
ENDSEC
  0
SECTION
  2
OBJECTS
  0
DICTIONARY
  5
C
330
0
100
AcDbDictionary
281
     1
  3
ACAD_CIP_PREVIOUS_PRODUCT_INFO
350
216
  3
ACAD_COLOR
350
6B
  3
ACAD_DETAILVIEWSTYLE
350
21B
  3
ACAD_FIELDLIST
350
2B6
  3
ACAD_GROUP
350
D
  3
ACAD_LAYOUT
350
1A
  3
ACAD_MATERIAL
350
6A
  3
ACAD_MLEADERSTYLE
350
12D
  3
ACAD_MLINESTYLE
350
17
  3
ACAD_PLOTSETTINGS
350
19
  3
ACAD_PLOTSTYLENAME
350
E
  3
ACAD_SCALELIST
350
10C
  3
ACAD_SECTIONVIEWSTYLE
350
219
  3
ACAD_TABLESTYLE
350
7E
  3
ACAD_VISUALSTYLE
350
EF
  3
ACDB_RECOMPOSE_DATA
350
C1F
  3
AcDbVariableDictionary
350
5E
  3
AcmDictionary
350
27D
  3
AMG
350
251
  3
AMGSNAPSETTINGS
350
2F6
  0
DICTIONARY
  5
1FF
330
2
100
AcDbDictionary
280
     1
281
     1
  3
ACAD_LAYERSTATES
360
200
  0
DICTIONARY
  5
13C
330
10
100
AcDbDictionary
280
     1
281
     1
  0
DICTIONARY
  5
1CE
330
1F
100
AcDbDictionary
280
     1
281
     1
  3
ACAD_SORTENTS
360
372
  0
XRECORD
  5
216
102
{ACAD_REACTORS
330
C
102
}
330
C
100
AcDbXrecord
280
     1
300
AMECH_PP
300
2015
300
AMECH_PP_F_S
  0
DICTIONARY
  5
6B
102
{ACAD_REACTORS
330
C
102
}
330
C
100
AcDbDictionary
281
     1
  0
DICTIONARY
  5
21B
102
{ACAD_REACTORS
330
C
102
}
330
C
100
AcDbDictionary
281
     1
  3
Imperial24
350
2EA
  3
Metric50
350
21C
  0
FIELDLIST
  5
2B6
102
{ACAD_REACTORS
330
C
102
}
330
C
100
AcDbIdSet
 90
        3
330
BE4
330
BE5
330
BE6
100
AcDbFieldList
  0
DICTIONARY
  5
D
102
{ACAD_REACTORS
330
C
102
}
330
C
100
AcDbDictionary
281
     1
  0
DICTIONARY
  5
1A
102
{ACAD_REACTORS
330
C
102
}
330
C
100
AcDbDictionary
281
     1
  3
Model
350
22
  3
Układ1
350
D3
  3
Układ2
350
D7
  0
DICTIONARY
  5
6A
102
{ACAD_REACTORS
330
C
102
}
330
C
100
AcDbDictionary
281
     1
  3
ByBlock
350
ED
  3
ByLayer
350
EC
  3
Global
350
EE
  0
DICTIONARY
  5
12D
102
{ACAD_REACTORS
330
C
102
}
330
C
100
AcDbDictionary
281
     1
  3
Annotative
350
13B
  3
Standard
350
12E
  0
DICTIONARY
  5
17
102
{ACAD_REACTORS
330
C
102
}
330
C
100
AcDbDictionary
281
     1
  3
Standard
350
18
  0
DICTIONARY
  5
19
102
{ACAD_REACTORS
330
C
102
}
330
C
100
AcDbDictionary
281
     1
  0
ACDBDICTIONARYWDFLT
  5
E
102
{ACAD_REACTORS
330
C
102
}
330
C
100
AcDbDictionary
281
     1
  3
Normal
350
F
100
AcDbDictionaryWithDefault
340
F
  0
DICTIONARY
  5
10C
102
{ACAD_REACTORS
330
C
102
}
330
C
100
AcDbDictionary
281
     1
  3
A0
350
10D
  3
A1
350
1BE
  3
A2
350
1BF
  3
A3
350
1C0
  3
A4
350
1C1
  3
A5
350
1C2
  3
A6
350
1C3
  3
A7
350
1C4
  3
A8
350
1C5
  3
A9
350
1C6
  3
B0
350
1C7
  3
B1
350
1C8
  3
B2
350
1C9
  3
B3
350
1CA
  3
B4
350
1CB
  3
B5
350
1CC
  3
B6
350
1CD
  0
DICTIONARY
  5
219
102
{ACAD_REACTORS
330
C
102
}
330
C
100
AcDbDictionary
281
     1
  3
Imperial24
350
2E8
  3
Metric50
350
21A
  0
DICTIONARY
  5
7E
102
{ACAD_REACTORS
330
C
102
}
330
C
100
AcDbDictionary
281
     1
  3
Standard
350
7F
  0
DICTIONARY
  5
EF
102
{ACAD_REACTORS
330
C
102
}
330
C
100
AcDbDictionary
281
     1
  3
2dWireframe
350
F5
  3
Basic
350
F4
  3
Brighten
350
FB
  3
ColorChange
350
FF
  3
Conceptual
350
F8
  3
Dim
350
FA
  3
EdgeColorOff
350
1E6
  3
Facepattern
350
FE
  3
Flat
350
F0
  3
FlatWithEdges
350
F1
  3
Gouraud
350
F2
  3
GouraudWithEdges
350
F3
  3
Hidden
350
F7
  3
JitterOff
350
1E4
  3
Linepattern
350
FD
  3
OverhangOff
350
1E5
  3
Realistic
350
F9
  3
Shaded
350
1F3
  3
Shaded with edges
350
1F2
  3
Shades of Gray
350
1EF
  3
Sketchy
350
1F0
  3
Thicken
350
FC
  3
Wireframe
350
F6
  3
X-Ray
350
1F1
  0
XRECORD
  5
C1F
102
{ACAD_REACTORS
330
C
102
}
330
C
100
AcDbXrecord
280
     1
 90
        1
330
7F
330
21A
330
21C
330
2E8
330
2EA
330
2FE
330
2FF
330
BF8
  0
DICTIONARY
  5
5E
102
{ACAD_REACTORS
330
C
102
}
330
C
100
AcDbDictionary
281
     1
  3
CANNOSCALE
350
146
  3
CMLEADERSTYLE
350
145
  3
CTABLESTYLE
350
84
  3
CVIEWDETAILSTYLE
350
227
  3
CVIEWSECTIONSTYLE
350
228
  3
DIMASSOC
350
5F
  3
HIDETEXT
350
63
  3
LAYEREVAL
350
1AE
  3
LAYERNOTIFY
350
1AF
  0
DICTIONARY
  5
27D
102
{ACAD_REACTORS
330
C
102
}
330
C
100
AcDbDictionary
281
     1
  3
AcmStdDictionary
350
27F
  0
DICTIONARY
  5
251
102
{ACAD_REACTORS
330
C
102
}
330
C
100
AcDbDictionary
281
     1
  0
DICTIONARY
  5
2F6
102
{ACAD_REACTORS
330
C
102
}
330
C
100
AcDbDictionary
281
     1
  0
DICTIONARY
  5
200
102
{ACAD_REACTORS
330
1FF
102
}
330
1FF
100
AcDbDictionary
281
     1
  0
SORTENTSTABLE
  5
372
102
{ACAD_REACTORS
330
1CE
102
}
330
1CE
100
AcDbSortentsTable
330
1F
331
2FE
  5
2FE
331
2FF
  5
2FF
331
300
  5
300
331
301
  5
301
  0
ACDBDETAILVIEWSTYLE
  5
2EA
102
{ACAD_XDICTIONARY
360
2EB
102
}
102
{ACAD_REACTORS
330
21B
330
BDE
102
}
330
21B
100
AcDbModelDocViewStyle
 70
     0
  3
Imperial24
290
     0
100
AcDbDetailViewStyle
 70
     0
 71
     0
 90
        3
 71
     1
340
11
 62
   256
 40
0.24
340
0
 62
   256
 40
0.24
300

 40
0.36
280
     3
 71
     2
340
16
 90
       25
 62
   256
 71
     3
340
11
 62
   256
 40
0.24
 90
        1
 40
0.75
 90
        1
300
%<\AcVar ViewType \f "%tc1">% %<\AcVar ViewDetailId>%\PSKALA %<\AcVar ViewScale \f "%sn">%
 71
     4
340
16
 90
       25
 62
   256
340
16
 90
       25
 62
   256
280
     0
  0
ACDBDETAILVIEWSTYLE
  5
21C
102
{ACAD_XDICTIONARY
360
236
102
}
102
{ACAD_REACTORS
330
21B
330
BDF
102
}
330
21B
100
AcDbModelDocViewStyle
 70
     0
  3
Metric50
290
     0
100
AcDbDetailViewStyle
 70
     0
 71
     0
 90
        3
 71
     1
340
11
 62
   256
 40
5.0
340
0
 62
   256
 40
5.0
300

 40
0.0
280
     1
 71
     2
340
16
 90
       25
 62
   256
 71
     3
340
11
 62
   256
 40
5.0
 90
        0
 40
15.0
 90
        1
300
%<\AcVar ViewDetailId>% (%<\AcVar ViewScale \f "%sn">%)
 71
     4
340
16
 90
       25
 62
   256
340
16
 90
       25
 62
   256
280
     0
  0
LAYOUT
  5
22
102
{ACAD_XDICTIONARY
360
205
102
}
102
{ACAD_REACTORS
330
1A
102
}
330
1A
100
AcDbPlotSettings
  1

  2
none_device
  4
ISO_A4_(210.00_x_297.00_MM)
  6

 40
7.5
 41
20.0
 42
7.5
 43
20.0
 44
210.0
 45
297.0
 46
11.54999923706054
 47
-13.65000009536743
 48
0.0
 49
0.0
140
0.0
141
0.0
142
1.0
143
8.704084754739808
 70
 11952
 72
     1
 73
     0
 74
     0
  7

 75
     0
147
0.1148885871608098
 76
     0
 77
     2
 78
   300
148
0.0
149
0.0
100
AcDbLayout
  1
Model
 70
     1
 71
     0
 10
0.0
 20
0.0
 11
12.0
 21
9.0
 12
0.0
 22
0.0
 32
0.0
 14
0.0
 24
0.0
 34
0.0
 15
0.0
 25
0.0
 35
0.0
146
0.0
 13
0.0
 23
0.0
 33
0.0
 16
1.0
 26
0.0
 36
0.0
 17
0.0
 27
1.0
 37
0.0
 76
     0
330
1F
331
EA
1001
ACAD_PSEXT
1000
None
1000
None
1000
Not applicable
1000
The layout will not be plotted unless a new plotter configuration name is selected.
1070
     0
  0
LAYOUT
  5
D3
102
{ACAD_REACTORS
330
1A
102
}
330
1A
100
AcDbPlotSettings
  1

  2
C:\Documents and Settings\basas\Application Data\Autodesk\AutoCAD 2005\R16.1\enu\plotters\Default Windows System Printer.pc3
  4

  6

 40
0.0
 41
0.0
 42
0.0
 43
0.0
 44
0.0
 45
0.0
 46
0.0
 47
0.0
 48
0.0
 49
0.0
140
0.0
141
0.0
142
1.0
143
1.0
 70
   688
 72
     0
 73
     0
 74
     5
  7

 75
    16
147
1.0
 76
     0
 77
     2
 78
   300
148
0.0
149
0.0
100
AcDbLayout
  1
Układ1
 70
     1
 71
     1
 10
0.0
 20
0.0
 11
12.0
 21
9.0
 12
0.0
 22
0.0
 32
0.0
 14
0.0
 24
0.0
 34
0.0
 15
0.0
 25
0.0
 35
0.0
146
0.0
 13
0.0
 23
0.0
 33
0.0
 16
1.0
 26
0.0
 36
0.0
 17
0.0
 27
1.0
 37
0.0
 76
     0
330
D2
  0
LAYOUT
  5
D7
102
{ACAD_REACTORS
330
1A
102
}
330
1A
100
AcDbPlotSettings
  1

  2
C:\Documents and Settings\basas\Application Data\Autodesk\AutoCAD 2005\R16.1\enu\plotters\Default Windows System Printer.pc3
  4

  6

 40
0.0
 41
0.0
 42
0.0
 43
0.0
 44
0.0
 45
0.0
 46
0.0
 47
0.0
 48
0.0
 49
0.0
140
0.0
141
0.0
142
1.0
143
1.0
 70
   688
 72
     0
 73
     0
 74
     5
  7

 75
    16
147
1.0
 76
     0
 77
     2
 78
   300
148
0.0
149
0.0
100
AcDbLayout
  1
Układ2
 70
     1
 71
     2
 10
0.0
 20
0.0
 11
12.0
 21
9.0
 12
0.0
 22
0.0
 32
0.0
 14
0.0
 24
0.0
 34
0.0
 15
0.0
 25
0.0
 35
0.0
146
0.0
 13
0.0
 23
0.0
 33
0.0
 16
1.0
 26
0.0
 36
0.0
 17
0.0
 27
1.0
 37
0.0
 76
     0
330
D6
  0
MATERIAL
  5
ED
102
{ACAD_XDICTIONARY
360
1F9
102
}
102
{ACAD_REACTORS
330
6A
102
}
330
6A
100
AcDbMaterial
  1
ByBlock
 94
       63
  0
MATERIAL
  5
EC
102
{ACAD_XDICTIONARY
360
1F7
102
}
102
{ACAD_REACTORS
330
6A
102
}
330
6A
100
AcDbMaterial
  1
ByLayer
 94
       63
  0
MATERIAL
  5
EE
102
{ACAD_XDICTIONARY
360
173
102
}
102
{ACAD_REACTORS
330
6A
102
}
330
6A
100
AcDbMaterial
  1
Global
 43
0.0007999999797903
 43
0.0
 43
0.0
 43
0.0
 43
0.0
 43
0.0007999999797903
 43
0.0
 43
0.0
 43
0.0
 43
0.0
 43
1.0
 43
0.0
 43
0.0
 43
0.0
 43
0.0
 43
1.0
 49
0.0007999999797903
 49
0.0
 49
0.0
 49
0.0
 49
0.0
 49
0.0007999999797903
 49
0.0
 49
0.0
 49
0.0
 49
0.0
 49
1.0
 49
0.0
 49
0.0
 49
0.0
 49
0.0
 49
1.0
142
0.0007999999797903
142
0.0
142
0.0
142
0.0
142
0.0
142
0.0007999999797903
142
0.0
142
0.0
142
0.0
142
0.0
142
1.0
142
0.0
142
0.0
142
0.0
142
0.0
142
1.0
144
0.0007999999797903
144
0.0
144
0.0
144
0.0
144
0.0
144
0.0007999999797903
144
0.0
144
0.0
144
0.0
144
0.0
144
1.0
144
0.0
144
0.0
144
0.0
144
0.0
144
1.0
 94
       63
1001
ACAD
1070
    -1
1070
     3
1070
     0
1000

1071
        0
1070
     0
  0
MLEADERSTYLE
  5
13B
102
{ACAD_REACTORS
330
12D
102
}
330
12D
100
AcDbMLeaderStyle
179
     2
170
     2
171
     1
172
     0
 90
        2
 40
0.0
 41
0.0
173
     1
 91
-1056964608
340
14
 92
       -2
290
     1
 42
2.0
291
     1
 43
8.0
  3
Standard
 44
4.0
300

342
11
174
     1
178
     1
175
     1
176
     0
 93
-1056964608
 45
4.0
292
     0
297
     0
 46
4.0
 94
-1056964608
 47
1.0
 49
1.0
140
1.0
293
     1
141
0.0
294
     1
177
     0
142
1.0
295
     0
296
     1
143
3.75
271
     0
272
     9
273
     9
298
     0
  0
MLEADERSTYLE
  5
12E
102
{ACAD_REACTORS
330
12D
102
}
330
12D
100
AcDbMLeaderStyle
179
     2
170
     2
171
     1
172
     0
 90
        2
 40
0.0
 41
0.0
173
     1
 91
-1056964608
340
14
 92
       -2
290
     1
 42
2.0
291
     1
 43
8.0
  3
Standard
 44
4.0
300

342
11
174
     1
178
     1
175
     1
176
     0
 93
-1056964608
 45
4.0
292
     0
297
     0
 46
4.0
 94
-1056964608
 47
1.0
 49
1.0
140
1.0
293
     1
141
0.0
294
     1
177
     0
142
1.0
295
     0
296
     0
143
3.75
271
     0
272
     9
273
     9
298
     0
  0
MLINESTYLE
  5
18
102
{ACAD_REACTORS
330
17
102
}
330
17
100
AcDbMlineStyle
  2
STANDARD
 70
     0
  3

 62
   256
 51
90.0
 52
90.0
 71
     2
 49
0.5
 62
   256
  6
BYLAYER
 49
-0.5
 62
   256
  6
BYLAYER
  0
ACDBPLACEHOLDER
  5
F
102
{ACAD_REACTORS
330
E
102
}
330
E
  0
SCALE
  5
10D
102
{ACAD_REACTORS
330
10C
102
}
330
10C
100
AcDbScale
 70
     0
300
1:1
140
1.0
141
1.0
290
     1
  0
SCALE
  5
1BE
102
{ACAD_REACTORS
330
10C
102
}
330
10C
100
AcDbScale
 70
     0
300
1:2
140
1.0
141
2.0
290
     0
  0
SCALE
  5
1BF
102
{ACAD_REACTORS
330
10C
102
}
330
10C
100
AcDbScale
 70
     0
300
1:4
140
1.0
141
4.0
290
     0
  0
SCALE
  5
1C0
102
{ACAD_REACTORS
330
10C
102
}
330
10C
100
AcDbScale
 70
     0
300
1:5
140
1.0
141
5.0
290
     0
  0
SCALE
  5
1C1
102
{ACAD_REACTORS
330
10C
102
}
330
10C
100
AcDbScale
 70
     0
300
1:8
140
1.0
141
8.0
290
     0
  0
SCALE
  5
1C2
102
{ACAD_REACTORS
330
10C
102
}
330
10C
100
AcDbScale
 70
     0
300
1:10
140
1.0
141
10.0
290
     0
  0
SCALE
  5
1C3
102
{ACAD_REACTORS
330
10C
102
}
330
10C
100
AcDbScale
 70
     0
300
1:16
140
1.0
141
16.0
290
     0
  0
SCALE
  5
1C4
102
{ACAD_REACTORS
330
10C
102
}
330
10C
100
AcDbScale
 70
     0
300
1:20
140
1.0
141
20.0
290
     0
  0
SCALE
  5
1C5
102
{ACAD_REACTORS
330
10C
102
}
330
10C
100
AcDbScale
 70
     0
300
1:30
140
1.0
141
30.0
290
     0
  0
SCALE
  5
1C6
102
{ACAD_REACTORS
330
10C
102
}
330
10C
100
AcDbScale
 70
     0
300
1:40
140
1.0
141
40.0
290
     0
  0
SCALE
  5
1C7
102
{ACAD_REACTORS
330
10C
102
}
330
10C
100
AcDbScale
 70
     0
300
1:50
140
1.0
141
50.0
290
     0
  0
SCALE
  5
1C8
102
{ACAD_REACTORS
330
10C
102
}
330
10C
100
AcDbScale
 70
     0
300
1:100
140
1.0
141
100.0
290
     0
  0
SCALE
  5
1C9
102
{ACAD_REACTORS
330
10C
102
}
330
10C
100
AcDbScale
 70
     0
300
2:1
140
2.0
141
1.0
290
     0
  0
SCALE
  5
1CA
102
{ACAD_REACTORS
330
10C
102
}
330
10C
100
AcDbScale
 70
     0
300
4:1
140
4.0
141
1.0
290
     0
  0
SCALE
  5
1CB
102
{ACAD_REACTORS
330
10C
102
}
330
10C
100
AcDbScale
 70
     0
300
8:1
140
8.0
141
1.0
290
     0
  0
SCALE
  5
1CC
102
{ACAD_REACTORS
330
10C
102
}
330
10C
100
AcDbScale
 70
     0
300
10:1
140
10.0
141
1.0
290
     0
  0
SCALE
  5
1CD
102
{ACAD_REACTORS
330
10C
102
}
330
10C
100
AcDbScale
 70
     0
300
100:1
140
100.0
141
1.0
290
     0
  0
ACDBSECTIONVIEWSTYLE
  5
2E8
102
{ACAD_XDICTIONARY
360
2E9
102
}
102
{ACAD_REACTORS
330
219
330
BDC
102
}
330
219
100
AcDbModelDocViewStyle
 70
     0
  3
Imperial24
290
     0
100
AcDbSectionViewStyle
 70
     0
 71
     0
 90
      102
 71
     1
340
11
 62
   256
 40
5.0
340
0
340
0
 62
   256
 40
5.0
300
I, O, Q, S, X, Z
 40
10.0
 90
        0
 40
2.5
 90
        0
 71
     2
340
16
 90
       25
 62
   256
340
16
 90
       50
 62
   256
 40
5.0
 40
2.5
 40
5.0
 71
     3
340
11
 62
   256
 40
5.0
 90
        0
 40
15.0
 90
        1
300
%<\AcVar ViewSectionStartId>%-%<\AcVar ViewSectionEndId>% (%<\AcVar ViewScale \f "%sn">%)
 71
     4
 62
   256
 62
   257
300
ANSI31
 40
1.0
 90
        0
290
     0
290
     0
 90
        6
 40
0.0
 40
1.570796326794896
 40
0.2617993877991494
 40
1.308996938995747
 40
-0.2617993877991494
 40
1.832595714594044
  0
ACDBSECTIONVIEWSTYLE
  5
21A
102
{ACAD_XDICTIONARY
360
234
102
}
102
{ACAD_REACTORS
330
219
330
BDD
102
}
330
219
100
AcDbModelDocViewStyle
 70
     0
  3
Metric50
290
     0
100
AcDbSectionViewStyle
 70
     0
 71
     0
 90
      102
 71
     1
340
11
 62
   256
 40
5.0
340
0
340
0
 62
   256
 40
5.0
300
I, O, Q, S, X, Z
 40
10.0
 90
        0
 40
2.5
 90
        0
 71
     2
340
16
 90
       25
 62
   256
340
16
 90
       50
 62
   256
 40
5.0
 40
2.5
 40
5.0
 71
     3
340
11
 62
   256
 40
5.0
 90
        0
 40
15.0
 90
        1
300
%<\AcVar ViewSectionStartId>%-%<\AcVar ViewSectionEndId>% (%<\AcVar ViewScale \f "%sn">%)
 71
     4
 62
   256
 62
   257
300
ANSI31
 40
1.0
 90
        0
290
     0
290
     0
 90
        6
 40
0.0
 40
1.570796326794896
 40
0.2617993877991494
 40
1.308996938995747
 40
-0.2617993877991494
 40
1.832595714594044
  0
TABLESTYLE
  5
7F
102
{ACAD_XDICTIONARY
360
162
102
}
102
{ACAD_REACTORS
330
7E
102
}
330
7E
100
AcDbTableStyle
280
     0
  3
Standard
 70
     0
 71
     0
 40
1.5
 41
1.5
280
     0
281
     0
  7
Standard
140
4.5
170
     2
 62
     0
 63
     7
283
     0
 90
      512
 91
        0
  1

274
    -2
284
     1
 64
     0
275
    -2
285
     1
 65
     0
276
    -2
286
     1
 66
     0
277
    -2
287
     1
 67
     0
278
    -2
288
     1
 68
     0
279
    -2
289
     1
 69
     0
  7
Standard
140
6.0
170
     5
 62
     0
 63
     7
283
     0
 90
      512
 91
        0
  1

274
    -2
284
     1
 64
     0
275
    -2
285
     1
 65
     0
276
    -2
286
     1
 66
     0
277
    -2
287
     1
 67
     0
278
    -2
288
     1
 68
     0
279
    -2
289
     1
 69
     0
  7
Standard
140
4.5
170
     5
 62
     0
 63
     7
283
     0
 90
      512
 91
        0
  1

274
    -2
284
     1
 64
     0
275
    -2
285
     1
 65
     0
276
    -2
286
     1
 66
     0
277
    -2
287
     1
 67
     0
278
    -2
288
     1
 68
     0
279
    -2
289
     1
 69
     0
  0
VISUALSTYLE
  5
F5
102
{ACAD_REACTORS
330
EF
102
}
330
EF
100
AcDbVisualStyle
  2
2dWireframe
 70
     4
177
     3
291
     0
 70
    58
 90
        0
176
     1
 90
        2
176
     1
 90
        1
176
     1
 90
        0
176
     1
 40
0.6
176
     1
 40
30.0
176
     1
 62
     7
420
 16777215
176
     1
 90
        1
176
     1
 90
        4
176
     1
 62
     7
176
     1
 62
   257
176
     1
 90
        1
176
     1
 90
        1
176
     1
 40
1.0
176
     1
 90
        0
176
     1
 62
   257
176
     1
 40
1.0
176
     1
 90
        1
176
     1
 90
        6
176
     1
 90
        2
176
     1
 62
     7
176
     1
 90
        5
176
     1
 90
        0
176
     1
 90
        0
176
     1
290
     0
176
     1
 90
        1
176
     1
 40
0.0
176
     1
 90
        0
176
     1
290
     1
176
     1
290
     1
176
     1
290
     0
176
     1
290
     0
176
     1
290
     0
176
     1
290
     0
176
     1
290
     0
176
     1
290
     0
176
     1
290
     0
176
     1
 90
       50
176
     1
 40
0.0
176
     1
 40
1.0
176
     1
 90
        0
176
     1
 62
    18
176
     1
 90
       50
176
     1
 90
        3
176
     1
 62
     5
420
      255
176
     1
290
     0
176
     1
 90
       50
176
     1
 90
       50
176
     1
 90
       50
176
     1
290
     0
176
     1
 90
       50
176
     1
 62
   256
176
     0
 40
1.0
176
     0
 90
        2
176
     1
  1
strokes_ogs.tif
176
     1
290
     0
176
     1
 40
1.0
176
     1
 40
1.0
176
     1
  0
VISUALSTYLE
  5
F4
102
{ACAD_REACTORS
330
EF
102
}
330
EF
100
AcDbVisualStyle
  2
Basic
 70
     7
177
     3
291
     1
 70
    58
 90
        1
176
     1
 90
        0
176
     1
 90
        1
176
     1
 90
        0
176
     1
 40
0.6
176
     1
 40
30.0
176
     1
 62
     7
420
 16777215
176
     1
 90
        0
176
     1
 90
        4
176
     1
 62
     7
176
     1
 62
   257
176
     1
 90
        1
176
     1
 90
        1
176
     1
 40
1.0
176
     1
 90
        8
176
     1
 62
     7
176
     1
 40
1.0
176
     1
 90
        1
176
     1
 90
        6
176
     1
 90
        2
176
     1
 62
     7
176
     1
 90
        5
176
     1
 90
        0
176
     1
 90
        0
176
     1
290
     0
176
     1
 90
        1
176
     1
 40
0.0
176
     1
 90
        0
176
     1
290
     0
176
     1
290
     1
176
     1
290
     1
176
     1
290
     0
176
     1
290
     0
176
     1
290
     0
176
     1
290
     0
176
     1
290
     0
176
     1
290
     0
176
     1
 90
       50
176
     1
 40
0.0
176
     1
 40
1.0
176
     1
 90
        0
176
     1
 62
    18
176
     1
 90
       50
176
     1
 90
        3
176
     1
 62
     5
420
      255
176
     1
290
     0
176
     1
 90
       50
176
     1
 90
       50
176
     1
 90
       50
176
     1
290
     0
176
     1
 90
       50
176
     1
 62
   256
176
     0
 40
1.0
176
     0
 90
        2
176
     1
  1
strokes_ogs.tif
176
     1
290
     0
176
     1
 40
1.0
176
     1
 40
1.0
176
     1
  0
VISUALSTYLE
  5
FB
102
{ACAD_REACTORS
330
EF
102
}
330
EF
100
AcDbVisualStyle
  2
Brighten
 70
    12
177
     3
291
     1
 70
    58
 90
        2
176
     1
 90
        2
176
     1
 90
        1
176
     1
 90
        0
176
     1
 40
0.6
176
     1
 40
30.0
176
     1
 62
     7
420
 16777215
176
     1
 90
        1
176
     1
 90
        4
176
     1
 62
     7
176
     1
 62
   257
176
     1
 90
        1
176
     1
 90
        1
176
     1
 40
1.0
176
     1
 90
        8
176
     1
 62
     7
176
     1
 40
1.0
176
     1
 90
        1
176
     1
 90
        6
176
     1
 90
        2
176
     1
 62
     7
176
     1
 90
        5
176
     1
 90
        0
176
     1
 90
        0
176
     1
290
     0
176
     1
 90
        1
176
     1
 40
50.0
176
     1
 90
        0
176
     1
290
     0
176
     1
290
     1
176
     1
290
     1
176
     1
290
     0
176
     1
290
     0
176
     1
290
     0
176
     1
290
     0
176
     1
290
     0
176
     1
290
     0
176
     1
 90
       50
176
     1
 40
0.0
176
     1
 40
1.0
176
     1
 90
        0
176
     1
 62
    18
176
     1
 90
       50
176
     1
 90
        3
176
     1
 62
     5
420
      255
176
     1
290
     0
176
     1
 90
       50
176
     1
 90
       50
176
     1
 90
       50
176
     1
290
     0
176
     1
 90
       50
176
     1
 62
   256
176
     0
 40
1.0
176
     0
 90
        2
176
     1
  1
strokes_ogs.tif
176
     1
290
     0
176
     1
 40
1.0
176
     1
 40
1.0
176
     1
  0
VISUALSTYLE
  5
FF
102
{ACAD_REACTORS
330
EF
102
}
330
EF
100
AcDbVisualStyle
  2
ColorChange
 70
    16
177
     3
291
     1
 70
    58
 90
        2
176
     1
 90
        2
176
     1
 90
        3
176
     1
 90
        0
176
     1
 40
0.6
176
     1
 40
30.0
176
     1
 62
     8
420
  8421504
176
     1
 90
        1
176
     1
 90
        4
176
     1
 62
     7
176
     1
 62
   257
176
     1
 90
        1
176
     1
 90
        1
176
     1
 40
1.0
176
     1
 90
        8
176
     1
 62
     8
420
  8421504
176
     1
 40
1.0
176
     1
 90
        1
176
     1
 90
        6
176
     1
 90
        2
176
     1
 62
     7
176
     1
 90
        5
176
     1
 90
        0
176
     1
 90
        0
176
     1
290
     0
176
     1
 90
        1
176
     1
 40
0.0
176
     1
 90
        0
176
     1
290
     0
176
     1
290
     1
176
     1
290
     1
176
     1
290
     0
176
     1
290
     0
176
     1
290
     0
176
     1
290
     0
176
     1
290
     0
176
     1
290
     0
176
     1
 90
       50
176
     1
 40
0.0
176
     1
 40
1.0
176
     1
 90
        0
176
     1
 62
    18
176
     1
 90
       50
176
     1
 90
        3
176
     1
 62
     5
420
      255
176
     1
290
     0
176
     1
 90
       50
176
     1
 90
       50
176
     1
 90
       50
176
     1
290
     0
176
     1
 90
       50
176
     1
 62
   256
176
     0
 40
1.0
176
     0
 90
        2
176
     1
  1
strokes_ogs.tif
176
     1
290
     0
176
     1
 40
1.0
176
     1
 40
1.0
176
     1
  0
VISUALSTYLE
  5
F8
102
{ACAD_REACTORS
330
EF
102
}
330
EF
100
AcDbVisualStyle
  2
Conceptual
 70
     9
177
     3
291
     0
 70
    58
 90
        3
176
     1
 90
        2
176
     1
 90
        1
176
     1
 90
        0
176
     1
 40
0.6
176
     1
 40
30.0
176
     1
 62
     7
420
 16777215
176
     1
 90
        2
176
     1
 90
        2
176
     1
 62
     7
176
     1
 62
   257
176
     1
 90
        1
176
     1
 90
        1
176
     1
 40
40.0
176
     1
 90
        8
176
     1
 62
     7
176
     1
 40
1.0
176
     1
 90
        1
176
     1
 90
        6
176
     1
 90
        2
176
     1
 62
     7
176
     1
 90
        3
176
     1
 90
        0
176
     1
 90
        0
176
     1
290
     0
176
     1
 90
        1
176
     1
 40
0.0
176
     1
 90
        0
176
     1
290
     0
176
     1
290
     1
176
     1
290
     1
176
     1
290
     0
176
     1
290
     0
176
     1
290
     0
176
     1
290
     0
176
     1
290
     0
176
     1
290
     0
176
     1
 90
       50
176
     1
 40
0.0
176
     1
 40
1.0
176
     1
 90
        0
176
     1
 62
    18
176
     1
 90
       50
176
     1
 90
        3
176
     1
 62
     5
420
      255
176
     1
290
     0
176
     1
 90
       50
176
     1
 90
       50
176
     1
 90
       50
176
     1
290
     0
176
     1
 90
       50
176
     1
 62
   256
176
     0
 40
1.0
176
     0
 90
        2
176
     1
  1
strokes_ogs.tif
176
     1
290
     0
176
     1
 40
1.0
176
     1
 40
1.0
176
     1
  0
VISUALSTYLE
  5
FA
102
{ACAD_REACTORS
330
EF
102
}
330
EF
100
AcDbVisualStyle
  2
Dim
 70
    11
177
     3
291
     1
 70
    58
 90
        2
176
     1
 90
        2
176
     1
 90
        1
176
     1
 90
        0
176
     1
 40
0.6
176
     1
 40
30.0
176
     1
 62
     7
420
 16777215
176
     1
 90
        1
176
     1
 90
        4
176
     1
 62
     7
176
     1
 62
   257
176
     1
 90
        1
176
     1
 90
        1
176
     1
 40
1.0
176
     1
 90
        8
176
     1
 62
     7
176
     1
 40
1.0
176
     1
 90
        1
176
     1
 90
        6
176
     1
 90
        2
176
     1
 62
     7
176
     1
 90
        5
176
     1
 90
        0
176
     1
 90
        0
176
     1
290
     0
176
     1
 90
        1
176
     1
 40
-50.0
176
     1
 90
        0
176
     1
290
     0
176
     1
290
     1
176
     1
290
     1
176
     1
290
     0
176
     1
290
     0
176
     1
290
     0
176
     1
290
     0
176
     1
290
     0
176
     1
290
     0
176
     1
 90
       50
176
     1
 40
0.0
176
     1
 40
1.0
176
     1
 90
        0
176
     1
 62
    18
176
     1
 90
       50
176
     1
 90
        3
176
     1
 62
     5
420
      255
176
     1
290
     0
176
     1
 90
       50
176
     1
 90
       50
176
     1
 90
       50
176
     1
290
     0
176
     1
 90
       50
176
     1
 62
   256
176
     0
 40
1.0
176
     0
 90
        2
176
     1
  1
strokes_ogs.tif
176
     1
290
     0
176
     1
 40
1.0
176
     1
 40
1.0
176
     1
  0
VISUALSTYLE
  5
1E6
102
{ACAD_REACTORS
330
EF
102
}
330
EF
100
AcDbVisualStyle
  2
EdgeColorOff
 70
    22
177
     3
291
     1
 70
    58
 90
        2
176
     0
 90
        2
176
     0
 90
        0
176
     0
 90
        0
176
     0
 40
0.6
176
     0
 40
30.0
176
     0
 62
     7
420
 16777215
176
     0
 90
        1
176
     0
 90
        4
176
     0
 62
     7
176
     0
 62
   257
176
     0
 90
        1
176
     0
 90
        1
176
     0
 40
1.0
176
     0
 90
        8
176
     2
 62
     7
176
     0
 40
1.0
176
     0
 90
        1
176
     0
 90
        6
176
     0
 90
        2
176
     0
 62
     7
176
     0
 90
        5
176
     0
 90
        0
176
     0
 90
        0
176
     0
290
     0
176
     0
 90
        1
176
     0
 40
0.0
176
     0
 90
        0
176
     0
290
     0
176
     1
290
     1
176
     1
290
     1
176
     1
290
     0
176
     1
290
     0
176
     1
290
     0
176
     1
290
     0
176
     1
290
     0
176
     1
290
     0
176
     1
 90
       50
176
     1
 40
0.0
176
     1
 40
1.0
176
     1
 90
        0
176
     1
 62
    18
176
     1
 90
       50
176
     1
 90
        3
176
     1
 62
     5
420
      255
176
     1
290
     0
176
     1
 90
       50
176
     1
 90
       50
176
     1
 90
       50
176
     1
290
     0
176
     1
 90
       50
176
     1
 62
   256
176
     0
 40
1.0
176
     0
 90
        2
176
     1
  1
strokes_ogs.tif
176
     1
290
     0
176
     1
 40
1.0
176
     1
 40
1.0
176
     1
  0
VISUALSTYLE
  5
FE
102
{ACAD_REACTORS
330
EF
102
}
330
EF
100
AcDbVisualStyle
  2
Facepattern
 70
    15
177
     3
291
     1
 70
    58
 90
        2
176
     1
 90
        2
176
     1
 90
        1
176
     1
 90
        0
176
     1
 40
0.6
176
     1
 40
30.0
176
     1
 62
     7
420
 16777215
176
     1
 90
        1
176
     1
 90
        4
176
     1
 62
     7
176
     1
 62
   257
176
     1
 90
        1
176
     1
 90
        1
176
     1
 40
1.0
176
     1
 90
        8
176
     1
 62
     7
176
     1
 40
1.0
176
     1
 90
        1
176
     1
 90
        6
176
     1
 90
        2
176
     1
 62
     7
176
     1
 90
        5
176
     1
 90
        0
176
     1
 90
        0
176
     1
290
     0
176
     1
 90
        1
176
     1
 40
0.0
176
     1
 90
        0
176
     1
290
     0
176
     1
290
     1
176
     1
290
     1
176
     1
290
     0
176
     1
290
     0
176
     1
290
     0
176
     1
290
     0
176
     1
290
     0
176
     1
290
     0
176
     1
 90
       50
176
     1
 40
0.0
176
     1
 40
1.0
176
     1
 90
        0
176
     1
 62
    18
176
     1
 90
       50
176
     1
 90
        3
176
     1
 62
     5
420
      255
176
     1
290
     0
176
     1
 90
       50
176
     1
 90
       50
176
     1
 90
       50
176
     1
290
     0
176
     1
 90
       50
176
     1
 62
   256
176
     0
 40
1.0
176
     0
 90
        2
176
     1
  1
strokes_ogs.tif
176
     1
290
     0
176
     1
 40
1.0
176
     1
 40
1.0
176
     1
  0
VISUALSTYLE
  5
F0
102
{ACAD_REACTORS
330
EF
102
}
330
EF
100
AcDbVisualStyle
  2
Flat
 70
     0
177
     3
291
     1
 70
    58
 90
        2
176
     1
 90
        1
176
     1
 90
        1
176
     1
 90
        2
176
     1
 40
0.6
176
     1
 40
30.0
176
     1
 62
     7
420
 16777215
176
     1
 90
        0
176
     1
 90
        0
176
     1
 62
     7
176
     1
 62
   257
176
     1
 90
        1
176
     1
 90
        1
176
     1
 40
1.0
176
     1
 90
        8
176
     1
 62
     7
176
     1
 40
1.0
176
     1
 90
        1
176
     1
 90
        6
176
     1
 90
        2
176
     1
 62
     7
176
     1
 90
        5
176
     1
 90
        0
176
     1
 90
        0
176
     1
290
     0
176
     1
 90
       13
176
     1
 40
0.0
176
     1
 90
        0
176
     1
290
     0
176
     1
290
     1
176
     1
290
     1
176
     1
290
     0
176
     1
290
     0
176
     1
290
     0
176
     1
290
     0
176
     1
290
     0
176
     1
290
     0
176
     1
 90
       50
176
     1
 40
0.0
176
     1
 40
1.0
176
     1
 90
        0
176
     1
 62
    18
176
     1
 90
       50
176
     1
 90
        3
176
     1
 62
     5
420
      255
176
     1
290
     0
176
     1
 90
       50
176
     1
 90
       50
176
     1
 90
       50
176
     1
290
     0
176
     1
 90
       50
176
     1
 62
   256
176
     0
 40
1.0
176
     0
 90
        2
176
     1
  1
strokes_ogs.tif
176
     1
290
     0
176
     1
 40
1.0
176
     1
 40
1.0
176
     1
  0
VISUALSTYLE
  5
F1
102
{ACAD_REACTORS
330
EF
102
}
330
EF
100
AcDbVisualStyle
  2
FlatWithEdges
 70
     1
177
     3
291
     1
 70
    58
 90
        2
176
     1
 90
        1
176
     1
 90
        1
176
     1
 90
        2
176
     1
 40
0.6
176
     1
 40
30.0
176
     1
 62
     7
420
 16777215
176
     1
 90
        1
176
     1
 90
        0
176
     1
 62
     7
176
     1
 62
   257
176
     1
 90
        1
176
     1
 90
        1
176
     1
 40
1.0
176
     1
 90
        0
176
     1
 62
   257
176
     1
 40
1.0
176
     1
 90
        1
176
     1
 90
        6
176
     1
 90
        2
176
     1
 62
     7
176
     1
 90
        5
176
     1
 90
        0
176
     1
 90
        0
176
     1
290
     0
176
     1
 90
       13
176
     1
 40
0.0
176
     1
 90
        0
176
     1
290
     0
176
     1
290
     1
176
     1
290
     1
176
     1
290
     0
176
     1
290
     0
176
     1
290
     0
176
     1
290
     0
176
     1
290
     0
176
     1
290
     0
176
     1
 90
       50
176
     1
 40
0.0
176
     1
 40
1.0
176
     1
 90
        0
176
     1
 62
    18
176
     1
 90
       50
176
     1
 90
        3
176
     1
 62
     5
420
      255
176
     1
290
     0
176
     1
 90
       50
176
     1
 90
       50
176
     1
 90
       50
176
     1
290
     0
176
     1
 90
       50
176
     1
 62
   256
176
     0
 40
1.0
176
     0
 90
        2
176
     1
  1
strokes_ogs.tif
176
     1
290
     0
176
     1
 40
1.0
176
     1
 40
1.0
176
     1
  0
VISUALSTYLE
  5
F2
102
{ACAD_REACTORS
330
EF
102
}
330
EF
100
AcDbVisualStyle
  2
Gouraud
 70
     2
177
     3
291
     1
 70
    58
 90
        2
176
     1
 90
        2
176
     1
 90
        1
176
     1
 90
        2
176
     1
 40
0.6
176
     1
 40
30.0
176
     1
 62
     7
420
 16777215
176
     1
 90
        0
176
     1
 90
        0
176
     1
 62
     7
176
     1
 62
   257
176
     1
 90
        1
176
     1
 90
        1
176
     1
 40
1.0
176
     1
 90
        0
176
     1
 62
     7
176
     1
 40
1.0
176
     1
 90
        1
176
     1
 90
        6
176
     1
 90
        2
176
     1
 62
     7
176
     1
 90
        5
176
     1
 90
        0
176
     1
 90
        0
176
     1
290
     0
176
     1
 90
       13
176
     1
 40
0.0
176
     1
 90
        0
176
     1
290
     0
176
     1
290
     1
176
     1
290
     1
176
     1
290
     0
176
     1
290
     0
176
     1
290
     0
176
     1
290
     0
176
     1
290
     0
176
     1
290
     0
176
     1
 90
       50
176
     1
 40
0.0
176
     1
 40
1.0
176
     1
 90
        0
176
     1
 62
    18
176
     1
 90
       50
176
     1
 90
        3
176
     1
 62
     5
420
      255
176
     1
290
     0
176
     1
 90
       50
176
     1
 90
       50
176
     1
 90
       50
176
     1
290
     0
176
     1
 90
       50
176
     1
 62
   256
176
     0
 40
1.0
176
     0
 90
        2
176
     1
  1
strokes_ogs.tif
176
     1
290
     0
176
     1
 40
1.0
176
     1
 40
1.0
176
     1
  0
VISUALSTYLE
  5
F3
102
{ACAD_REACTORS
330
EF
102
}
330
EF
100
AcDbVisualStyle
  2
GouraudWithEdges
 70
     3
177
     3
291
     1
 70
    58
 90
        2
176
     1
 90
        2
176
     1
 90
        1
176
     1
 90
        2
176
     1
 40
0.6
176
     1
 40
30.0
176
     1
 62
     7
420
 16777215
176
     1
 90
        1
176
     1
 90
        0
176
     1
 62
     7
176
     1
 62
   257
176
     1
 90
        1
176
     1
 90
        1
176
     1
 40
1.0
176
     1
 90
        0
176
     1
 62
   257
176
     1
 40
1.0
176
     1
 90
        1
176
     1
 90
        6
176
     1
 90
        2
176
     1
 62
     7
176
     1
 90
        5
176
     1
 90
        0
176
     1
 90
        0
176
     1
290
     0
176
     1
 90
       13
176
     1
 40
0.0
176
     1
 90
        0
176
     1
290
     0
176
     1
290
     1
176
     1
290
     1
176
     1
290
     0
176
     1
290
     0
176
     1
290
     0
176
     1
290
     0
176
     1
290
     0
176
     1
290
     0
176
     1
 90
       50
176
     1
 40
0.0
176
     1
 40
1.0
176
     1
 90
        0
176
     1
 62
    18
176
     1
 90
       50
176
     1
 90
        3
176
     1
 62
     5
420
      255
176
     1
290
     0
176
     1
 90
       50
176
     1
 90
       50
176
     1
 90
       50
176
     1
290
     0
176
     1
 90
       50
176
     1
 62
   256
176
     0
 40
1.0
176
     0
 90
        2
176
     1
  1
strokes_ogs.tif
176
     1
290
     0
176
     1
 40
1.0
176
     1
 40
1.0
176
     1
  0
VISUALSTYLE
  5
F7
102
{ACAD_REACTORS
330
EF
102
}
330
EF
100
AcDbVisualStyle
  2
Hidden
 70
     6
177
     3
291
     0
 70
    58
 90
        1
176
     1
 90
        2
176
     1
 90
        2
176
     1
 90
        0
176
     1
 40
0.6
176
     1
 40
30.0
176
     1
 62
     7
420
 16777215
176
     1
 90
        2
176
     1
 90
        2
176
     1
 62
     7
176
     1
 62
   257
176
     1
 90
        2
176
     1
 90
        1
176
     1
 40
40.0
176
     1
 90
        0
176
     1
 62
   257
176
     1
 40
1.0
176
     1
 90
        1
176
     1
 90
        6
176
     1
 90
        2
176
     1
 62
     7
176
     1
 90
        3
176
     1
 90
        0
176
     1
 90
        0
176
     1
290
     0
176
     1
 90
        1
176
     1
 40
0.0
176
     1
 90
        0
176
     1
290
     0
176
     1
290
     1
176
     1
290
     1
176
     1
290
     0
176
     1
290
     0
176
     1
290
     0
176
     1
290
     0
176
     1
290
     0
176
     1
290
     0
176
     1
 90
       50
176
     1
 40
0.0
176
     1
 40
1.0
176
     1
 90
        0
176
     1
 62
    18
176
     1
 90
       50
176
     1
 90
        3
176
     1
 62
     5
420
      255
176
     1
290
     0
176
     1
 90
       50
176
     1
 90
       50
176
     1
 90
       50
176
     1
290
     0
176
     1
 90
       50
176
     1
 62
   256
176
     0
 40
1.0
176
     0
 90
        2
176
     1
  1
strokes_ogs.tif
176
     1
290
     0
176
     1
 40
1.0
176
     1
 40
1.0
176
     1
  0
VISUALSTYLE
  5
1E4
102
{ACAD_REACTORS
330
EF
102
}
330
EF
100
AcDbVisualStyle
  2
JitterOff
 70
    20
177
     3
291
     1
 70
    58
 90
        2
176
     0
 90
        2
176
     0
 90
        0
176
     0
 90
        0
176
     0
 40
0.6
176
     0
 40
30.0
176
     0
 62
     7
420
 16777215
176
     0
 90
        1
176
     0
 90
        4
176
     0
 62
     7
176
     0
 62
   257
176
     0
 90
        1
176
     0
 90
        1
176
     0
 40
1.0
176
     0
 90
       10
176
     2
 62
     7
176
     0
 40
1.0
176
     0
 90
        1
176
     0
 90
        6
176
     0
 90
        2
176
     0
 62
     7
176
     0
 90
        5
176
     0
 90
        0
176
     0
 90
        0
176
     0
290
     0
176
     0
 90
        1
176
     0
 40
0.0
176
     0
 90
        0
176
     0
290
     0
176
     1
290
     1
176
     1
290
     1
176
     1
290
     0
176
     1
290
     0
176
     1
290
     0
176
     1
290
     0
176
     1
290
     0
176
     1
290
     0
176
     1
 90
       50
176
     1
 40
0.0
176
     1
 40
1.0
176
     1
 90
        0
176
     1
 62
    18
176
     1
 90
       50
176
     1
 90
        3
176
     1
 62
     5
420
      255
176
     1
290
     0
176
     1
 90
       50
176
     1
 90
       50
176
     1
 90
       50
176
     1
290
     0
176
     1
 90
       50
176
     1
 62
   256
176
     0
 40
1.0
176
     0
 90
        2
176
     1
  1
strokes_ogs.tif
176
     1
290
     0
176
     1
 40
1.0
176
     1
 40
1.0
176
     1
  0
VISUALSTYLE
  5
FD
102
{ACAD_REACTORS
330
EF
102
}
330
EF
100
AcDbVisualStyle
  2
Linepattern
 70
    14
177
     3
291
     1
 70
    58
 90
        2
176
     1
 90
        2
176
     1
 90
        1
176
     1
 90
        0
176
     1
 40
0.6
176
     1
 40
30.0
176
     1
 62
     7
420
 16777215
176
     1
 90
        1
176
     1
 90
        4
176
     1
 62
     7
176
     1
 62
   257
176
     1
 90
        7
176
     1
 90
        7
176
     1
 40
1.0
176
     1
 90
        8
176
     1
 62
     7
176
     1
 40
1.0
176
     1
 90
        1
176
     1
 90
        6
176
     1
 90
        2
176
     1
 62
     7
176
     1
 90
        5
176
     1
 90
        0
176
     1
 90
        0
176
     1
290
     0
176
     1
 90
        1
176
     1
 40
0.0
176
     1
 90
        0
176
     1
290
     0
176
     1
290
     1
176
     1
290
     1
176
     1
290
     0
176
     1
290
     0
176
     1
290
     0
176
     1
290
     0
176
     1
290
     0
176
     1
290
     0
176
     1
 90
       50
176
     1
 40
0.0
176
     1
 40
1.0
176
     1
 90
        0
176
     1
 62
    18
176
     1
 90
       50
176
     1
 90
        3
176
     1
 62
     5
420
      255
176
     1
290
     0
176
     1
 90
       50
176
     1
 90
       50
176
     1
 90
       50
176
     1
290
     0
176
     1
 90
       50
176
     1
 62
   256
176
     0
 40
1.0
176
     0
 90
        2
176
     1
  1
strokes_ogs.tif
176
     1
290
     0
176
     1
 40
1.0
176
     1
 40
1.0
176
     1
  0
VISUALSTYLE
  5
1E5
102
{ACAD_REACTORS
330
EF
102
}
330
EF
100
AcDbVisualStyle
  2
OverhangOff
 70
    21
177
     3
291
     1
 70
    58
 90
        2
176
     0
 90
        2
176
     0
 90
        0
176
     0
 90
        0
176
     0
 40
0.6
176
     0
 40
30.0
176
     0
 62
     7
420
 16777215
176
     0
 90
        1
176
     0
 90
        4
176
     0
 62
     7
176
     0
 62
   257
176
     0
 90
        1
176
     0
 90
        1
176
     0
 40
1.0
176
     0
 90
        9
176
     2
 62
     7
176
     0
 40
1.0
176
     0
 90
        1
176
     0
 90
        6
176
     0
 90
        2
176
     0
 62
     7
176
     0
 90
        5
176
     0
 90
        0
176
     0
 90
        0
176
     0
290
     0
176
     0
 90
        1
176
     0
 40
0.0
176
     0
 90
        0
176
     0
290
     0
176
     1
290
     1
176
     1
290
     1
176
     1
290
     0
176
     1
290
     0
176
     1
290
     0
176
     1
290
     0
176
     1
290
     0
176
     1
290
     0
176
     1
 90
       50
176
     1
 40
0.0
176
     1
 40
1.0
176
     1
 90
        0
176
     1
 62
    18
176
     1
 90
       50
176
     1
 90
        3
176
     1
 62
     5
420
      255
176
     1
290
     0
176
     1
 90
       50
176
     1
 90
       50
176
     1
 90
       50
176
     1
290
     0
176
     1
 90
       50
176
     1
 62
   256
176
     0
 40
1.0
176
     0
 90
        2
176
     1
  1
strokes_ogs.tif
176
     1
290
     0
176
     1
 40
1.0
176
     1
 40
1.0
176
     1
  0
VISUALSTYLE
  5
F9
102
{ACAD_REACTORS
330
EF
102
}
330
EF
100
AcDbVisualStyle
  2
Realistic
 70
     8
177
     3
291
     0
 70
    58
 90
        2
176
     1
 90
        3
176
     1
 90
        0
176
     1
 90
        2
176
     1
 40
0.6
176
     1
 40
30.0
176
     1
 62
     7
420
 16777215
176
     1
 90
        0
176
     1
 90
        0
176
     1
 62
     7
176
     1
 62
   257
176
     1
 90
        1
176
     1
 90
        1
176
     1
 40
1.0
176
     1
 90
        8
176
     1
 62
   257
176
     1
 40
1.0
176
     1
 90
        1
176
     1
 90
        6
176
     1
 90
        2
176
     1
 62
     7
176
     1
 90
        3
176
     1
 90
        0
176
     1
 90
        0
176
     1
290
     0
176
     1
 90
       13
176
     1
 40
0.0
176
     1
 90
        0
176
     1
290
     0
176
     1
290
     1
176
     1
290
     1
176
     1
290
     0
176
     1
290
     0
176
     1
290
     0
176
     1
290
     0
176
     1
290
     0
176
     1
290
     0
176
     1
 90
       50
176
     1
 40
0.0
176
     1
 40
1.0
176
     1
 90
        0
176
     1
 62
    18
176
     1
 90
       50
176
     1
 90
        3
176
     1
 62
     5
420
      255
176
     1
290
     0
176
     1
 90
       50
176
     1
 90
       50
176
     1
 90
       50
176
     1
290
     0
176
     1
 90
       50
176
     1
 62
   256
176
     0
 40
1.0
176
     0
 90
        2
176
     1
  1
strokes_ogs.tif
176
     1
290
     0
176
     1
 40
1.0
176
     1
 40
1.0
176
     1
  0
VISUALSTYLE
  5
1F3
102
{ACAD_REACTORS
330
EF
102
}
330
EF
100
AcDbVisualStyle
  2
Shaded
 70
    27
177
     3
291
     0
 70
    58
 90
        2
176
     1
 90
        2
176
     1
 90
        1
176
     1
 90
        2
176
     1
 40
0.6
176
     1
 40
30.0
176
     1
 62
     7
420
 16777215
176
     1
 90
        0
176
     1
 90
        4
176
     1
 62
     7
176
     1
 62
   257
176
     1
 90
        1
176
     1
 90
        1
176
     1
 40
1.0
176
     1
 90
        8
176
     1
 62
   257
176
     1
 40
1.0
176
     1
 90
        1
176
     1
 90
        6
176
     1
 90
        2
176
     1
 62
     8
420
  7895160
176
     1
 90
        3
176
     1
 90
        0
176
     1
 90
        0
176
     1
290
     0
176
     1
 90
        5
176
     1
 40
0.0
176
     1
 90
        0
176
     1
290
     0
176
     1
290
     1
176
     1
290
     1
176
     1
290
     0
176
     1
290
     0
176
     1
290
     0
176
     1
290
     0
176
     1
290
     0
176
     1
290
     0
176
     1
 90
       50
176
     1
 40
0.0
176
     1
 40
1.0
176
     1
 90
        0
176
     1
 62
    18
176
     1
 90
       50
176
     1
 90
        3
176
     1
 62
     5
420
      255
176
     1
290
     0
176
     1
 90
       50
176
     1
 90
       50
176
     1
 90
       50
176
     1
290
     0
176
     1
 90
       50
176
     1
 62
   256
176
     0
 40
1.0
176
     0
 90
        2
176
     1
  1
strokes_ogs.tif
176
     1
290
     0
176
     1
 40
1.0
176
     1
 40
1.0
176
     1
  0
VISUALSTYLE
  5
1F2
102
{ACAD_REACTORS
330
EF
102
}
330
EF
100
AcDbVisualStyle
  2
Shaded with edges
 70
    26
177
     3
291
     0
 70
    58
 90
        2
176
     1
 90
        2
176
     1
 90
        1
176
     1
 90
        2
176
     1
 40
0.6
176
     1
 40
30.0
176
     1
 62
     7
420
 16777215
176
     1
 90
        1
176
     1
 90
       10
176
     1
 62
     7
176
     1
 62
   257
176
     1
 90
        2
176
     1
 90
        1
176
     1
 40
1.0
176
     1
 90
        8
176
     1
 62
   257
176
     1
 40
1.0
176
     1
 90
        1
176
     1
 90
        6
176
     1
 90
        2
176
     1
 62
     7
176
     1
 90
        3
176
     1
 90
        0
176
     1
 90
        0
176
     1
290
     0
176
     1
 90
        5
176
     1
 40
0.0
176
     1
 90
        0
176
     1
290
     0
176
     1
290
     1
176
     1
290
     1
176
     1
290
     0
176
     1
290
     0
176
     1
290
     0
176
     1
290
     0
176
     1
290
     0
176
     1
290
     0
176
     1
 90
       50
176
     1
 40
0.0
176
     1
 40
1.0
176
     1
 90
        0
176
     1
 62
    18
176
     1
 90
       50
176
     1
 90
        3
176
     1
 62
     5
420
      255
176
     1
290
     0
176
     1
 90
       50
176
     1
 90
       50
176
     1
 90
       50
176
     1
290
     0
176
     1
 90
       50
176
     1
 62
   256
176
     0
 40
1.0
176
     0
 90
        2
176
     1
  1
strokes_ogs.tif
176
     1
290
     0
176
     1
 40
1.0
176
     1
 40
1.0
176
     1
  0
VISUALSTYLE
  5
1EF
102
{ACAD_REACTORS
330
EF
102
}
330
EF
100
AcDbVisualStyle
  2
Shades of Gray
 70
    23
177
     3
291
     0
 70
    58
 90
        2
176
     1
 90
        2
176
     1
 90
        3
176
     1
 90
        0
176
     1
 40
0.6
176
     1
 40
30.0
176
     1
 62
     7
420
 16777215
176
     1
 90
        2
176
     1
 90
        2
176
     1
 62
     7
176
     1
 62
     7
176
     1
 90
        1
176
     1
 90
        1
176
     1
 40
40.0
176
     1
 90
        8
176
     1
 62
     7
176
     1
 40
1.0
176
     1
 90
        1
176
     1
 90
        6
176
     1
 90
        2
176
     1
 62
     7
176
     1
 90
        3
176
     1
 90
        0
176
     1
 90
        0
176
     1
290
     0
176
     1
 90
        1
176
     1
 40
0.0
176
     1
 90
        0
176
     1
290
     0
176
     1
290
     1
176
     1
290
     1
176
     1
290
     0
176
     1
290
     0
176
     1
290
     0
176
     1
290
     0
176
     1
290
     0
176
     1
290
     0
176
     1
 90
       50
176
     1
 40
0.0
176
     1
 40
1.0
176
     1
 90
        0
176
     1
 62
    18
176
     1
 90
       50
176
     1
 90
        3
176
     1
 62
     5
420
      255
176
     1
290
     0
176
     1
 90
       50
176
     1
 90
       50
176
     1
 90
       50
176
     1
290
     0
176
     1
 90
       50
176
     1
 62
   256
176
     0
 40
1.0
176
     0
 90
        2
176
     1
  1
strokes_ogs.tif
176
     1
290
     0
176
     1
 40
1.0
176
     1
 40
1.0
176
     1
  0
VISUALSTYLE
  5
1F0
102
{ACAD_REACTORS
330
EF
102
}
330
EF
100
AcDbVisualStyle
  2
Sketchy
 70
    24
177
     3
291
     0
 70
    58
 90
        1
176
     1
 90
        2
176
     1
 90
        2
176
     1
 90
        0
176
     1
 40
0.6
176
     1
 40
30.0
176
     1
 62
     7
420
 16777215
176
     1
 90
        2
176
     1
 90
        2
176
     1
 62
     7
176
     1
 62
     7
176
     1
 90
        1
176
     1
 90
        1
176
     1
 40
40.0
176
     1
 90
       11
176
     1
 62
     7
176
     1
 40
1.0
176
     1
 90
        1
176
     1
 90
        6
176
     1
 90
        2
176
     1
 62
     7
176
     1
 90
        6
176
     1
 90
        0
176
     1
 90
        0
176
     1
290
     0
176
     1
 90
        1
176
     1
 40
0.0
176
     1
 90
        0
176
     1
290
     0
176
     1
290
     1
176
     1
290
     1
176
     1
290
     0
176
     1
290
     0
176
     1
290
     0
176
     1
290
     0
176
     1
290
     0
176
     1
290
     0
176
     1
 90
       50
176
     1
 40
0.0
176
     1
 40
1.0
176
     1
 90
        0
176
     1
 62
    18
176
     1
 90
       50
176
     1
 90
        3
176
     1
 62
     5
420
      255
176
     1
290
     0
176
     1
 90
       50
176
     1
 90
       50
176
     1
 90
       50
176
     1
290
     0
176
     1
 90
       50
176
     1
 62
   256
176
     0
 40
1.0
176
     0
 90
        2
176
     1
  1
strokes_ogs.tif
176
     1
290
     0
176
     1
 40
1.0
176
     1
 40
1.0
176
     1
  0
VISUALSTYLE
  5
FC
102
{ACAD_REACTORS
330
EF
102
}
330
EF
100
AcDbVisualStyle
  2
Thicken
 70
    13
177
     3
291
     1
 70
    58
 90
        2
176
     1
 90
        2
176
     1
 90
        1
176
     1
 90
        0
176
     1
 40
0.6
176
     1
 40
30.0
176
     1
 62
     7
420
 16777215
176
     1
 90
        1
176
     1
 90
        4
176
     1
 62
     7
176
     1
 62
   257
176
     1
 90
        1
176
     1
 90
        1
176
     1
 40
1.0
176
     1
 90
       12
176
     1
 62
     7
176
     1
 40
1.0
176
     1
 90
        1
176
     1
 90
        6
176
     1
 90
        2
176
     1
 62
     7
176
     1
 90
        5
176
     1
 90
        0
176
     1
 90
        0
176
     1
290
     0
176
     1
 90
        1
176
     1
 40
0.0
176
     1
 90
        0
176
     1
290
     0
176
     1
290
     1
176
     1
290
     1
176
     1
290
     0
176
     1
290
     0
176
     1
290
     0
176
     1
290
     0
176
     1
290
     0
176
     1
290
     0
176
     1
 90
       50
176
     1
 40
0.0
176
     1
 40
1.0
176
     1
 90
        0
176
     1
 62
    18
176
     1
 90
       50
176
     1
 90
        3
176
     1
 62
     5
420
      255
176
     1
290
     0
176
     1
 90
       50
176
     1
 90
       50
176
     1
 90
       50
176
     1
290
     0
176
     1
 90
       50
176
     1
 62
   256
176
     0
 40
1.0
176
     0
 90
        2
176
     1
  1
strokes_ogs.tif
176
     1
290
     0
176
     1
 40
1.0
176
     1
 40
1.0
176
     1
  0
VISUALSTYLE
  5
F6
102
{ACAD_REACTORS
330
EF
102
}
330
EF
100
AcDbVisualStyle
  2
Wireframe
 70
     5
177
     3
291
     0
 70
    58
 90
        0
176
     1
 90
        2
176
     1
 90
        0
176
     1
 90
        0
176
     1
 40
0.6
176
     1
 40
30.0
176
     1
 62
     7
420
 16777215
176
     1
 90
        1
176
     1
 90
        4
176
     1
 62
     7
176
     1
 62
   257
176
     1
 90
        1
176
     1
 90
        1
176
     1
 40
1.0
176
     1
 90
        0
176
     1
 62
   257
176
     1
 40
1.0
176
     1
 90
        1
176
     1
 90
        6
176
     1
 90
        2
176
     1
 62
     7
176
     1
 90
        3
176
     1
 90
        0
176
     1
 90
        0
176
     1
290
     0
176
     1
 90
        1
176
     1
 40
0.0
176
     1
 90
        0
176
     1
290
     0
176
     1
290
     1
176
     1
290
     1
176
     1
290
     0
176
     1
290
     0
176
     1
290
     0
176
     1
290
     0
176
     1
290
     0
176
     1
290
     0
176
     1
 90
       50
176
     1
 40
0.0
176
     1
 40
1.0
176
     1
 90
        0
176
     1
 62
    18
176
     1
 90
       50
176
     1
 90
        3
176
     1
 62
     5
420
      255
176
     1
290
     0
176
     1
 90
       50
176
     1
 90
       50
176
     1
 90
       50
176
     1
290
     0
176
     1
 90
       50
176
     1
 62
   256
176
     0
 40
1.0
176
     0
 90
        2
176
     1
  1
strokes_ogs.tif
176
     1
290
     0
176
     1
 40
1.0
176
     1
 40
1.0
176
     1
  0
VISUALSTYLE
  5
1F1
102
{ACAD_REACTORS
330
EF
102
}
330
EF
100
AcDbVisualStyle
  2
X-Ray
 70
    25
177
     3
291
     0
 70
    58
 90
        2
176
     1
 90
        2
176
     1
 90
        1
176
     1
 90
        1
176
     1
 40
0.5
176
     1
 40
30.0
176
     1
 62
     7
420
 16777215
176
     1
 90
        1
176
     1
 90
        0
176
     1
 62
     7
176
     1
 62
   257
176
     1
 90
        1
176
     1
 90
        1
176
     1
 40
1.0
176
     1
 90
        8
176
     1
 62
     7
176
     1
 40
1.0
176
     1
 90
        1
176
     1
 90
        6
176
     1
 90
        2
176
     1
 62
     7
176
     1
 90
        3
176
     1
 90
        0
176
     1
 90
        0
176
     1
290
     0
176
     1
 90
       13
176
     1
 40
0.0
176
     1
 90
        0
176
     1
290
     0
176
     1
290
     1
176
     1
290
     1
176
     1
290
     0
176
     1
290
     0
176
     1
290
     0
176
     1
290
     0
176
     1
290
     0
176
     1
290
     0
176
     1
 90
       50
176
     1
 40
0.0
176
     1
 40
1.0
176
     1
 90
        0
176
     1
 62
    18
176
     1
 90
       50
176
     1
 90
        3
176
     1
 62
     5
420
      255
176
     1
290
     0
176
     1
 90
       50
176
     1
 90
       50
176
     1
 90
       50
176
     1
290
     0
176
     1
 90
       50
176
     1
 62
   256
176
     0
 40
1.0
176
     0
 90
        2
176
     1
  1
strokes_ogs.tif
176
     1
290
     0
176
     1
 40
1.0
176
     1
 40
1.0
176
     1
  0
DICTIONARYVAR
  5
146
102
{ACAD_REACTORS
330
5E
102
}
330
5E
100
DictionaryVariables
280
     0
  1
1:1
  0
DICTIONARYVAR
  5
145
102
{ACAD_REACTORS
330
5E
102
}
330
5E
100
DictionaryVariables
280
     0
  1
STANDARD
  0
DICTIONARYVAR
  5
84
102
{ACAD_REACTORS
330
5E
102
}
330
5E
100
DictionaryVariables
280
     0
  1
STANDARD
  0
DICTIONARYVAR
  5
227
102
{ACAD_REACTORS
330
5E
102
}
330
5E
100
DictionaryVariables
280
     0
  1
Metric50
  0
DICTIONARYVAR
  5
228
102
{ACAD_REACTORS
330
5E
102
}
330
5E
100
DictionaryVariables
280
     0
  1
Metric50
  0
DICTIONARYVAR
  5
5F
102
{ACAD_REACTORS
330
5E
102
}
330
5E
100
DictionaryVariables
280
     0
  1
2
  0
DICTIONARYVAR
  5
63
102
{ACAD_REACTORS
330
5E
102
}
330
5E
100
DictionaryVariables
280
     0
  1
1
  0
DICTIONARYVAR
  5
1AE
102
{ACAD_REACTORS
330
5E
102
}
330
5E
100
DictionaryVariables
280
     0
  1
0
  0
DICTIONARYVAR
  5
1AF
102
{ACAD_REACTORS
330
5E
102
}
330
5E
100
DictionaryVariables
280
     0
  1
0
  0
DICTIONARY
  5
27F
102
{ACAD_REACTORS
330
27D
102
}
330
27D
100
AcDbDictionary
281
     1
  0
DICTIONARY
  5
2EB
330
2EA
100
AcDbDictionary
280
     1
281
     1
  3
ACAD_XREC_ROUNDTRIP
360
C1E
  0
DICTIONARY
  5
236
330
21C
100
AcDbDictionary
280
     1
281
     1
  3
ACAD_XREC_ROUNDTRIP
360
C1C
  0
DICTIONARY
  5
205
330
22
100
AcDbDictionary
280
     1
281
     1
  0
DICTIONARY
  5
1F9
330
ED
100
AcDbDictionary
280
     1
281
     1
  3
FBXASSET
360
1FA
  0
DICTIONARY
  5
1F7
330
EC
100
AcDbDictionary
280
     1
281
     1
  3
FBXASSET
360
1F8
  0
DICTIONARY
  5
173
330
EE
100
AcDbDictionary
280
     1
281
     1
  3
BUMPTILE
360
175
  3
DIFFUSETILE
360
174
  3
FBXASSET
360
1FB
  3
OPACITYTILE
360
176
  3
REFLECTIONTILE
360
177
  0
DICTIONARY
  5
2E9
330
2E8
100
AcDbDictionary
280
     1
281
     1
  3
ACAD_XREC_ROUNDTRIP
360
C1D
  0
DICTIONARY
  5
234
330
21A
100
AcDbDictionary
280
     1
281
     1
  3
ACAD_XREC_ROUNDTRIP
360
C1B
  0
DICTIONARY
  5
162
330
7F
100
AcDbDictionary
280
     1
281
     1
  3
ACAD_ROUNDTRIP_2008_TABLESTYLE_CELLSTYLEMAP
360
C1A
  0
XRECORD
  5
C1E
102
{ACAD_REACTORS
330
2EB
102
}
330
2EB
100
AcDbXrecord
280
     1
102
DISPLAYNAME
  1
Imperial24
102
FLAGS
 90
        0
  0
XRECORD
  5
C1C
102
{ACAD_REACTORS
330
236
102
}
330
236
100
AcDbXrecord
280
     1
102
DISPLAYNAME
  1
Metric50
102
FLAGS
 90
        0
  0
XRECORD
  5
1FA
102
{ACAD_REACTORS
330
1F9
102
}
330
1F9
100
AcDbXrecord
280
     1
 70
     1
 90
429727718
  1
D62C5603-E3A1-4AEA-B7FB-FE5D8D0755AF
310
504B03040A0000080000CC70623B3DEE336E79000000790000001B0000006175746F6465736B2D64657369676E2D7061636B6167652E786D6C3C3F786D6C2076657273696F6E3D22312E302220656E636F64696E673D227574662D3822203F3E3C666F726D6174733E3C666F726D61743E687474703A2F2F736368656D612E
310
6175746F6465736B2E636F6D2F64657369676E2D7061636B6167652F323030393C2F666F726D61743E3C2F666F726D6174733E504B0304140006080800CC70623BD486FD9CA0000000F4000000130000005B436F6E74656E745F54797065735D2E786D6C7D8EC10E82300C865F65E91D8A1E8C310C0EEA1BF002731658846E
310
D98AC1B77784ABF1D8FE5FBFBF75BBCE937A534CCEB38643598122B6FEE978D0B0485F9C41B54DDD7D022595594E1A469170414C76A4D9A4D207E29CF43ECE46F218070CC6BECC4078ACAA135ACF422C856C0E68EA1BF5669944DDD7BCDE7B1F8E415D77AECB980613C2E4AC91FC167A2B244592486606FC29C8FD7F045B9A
310
EF7053A7E60B504B0304140006080800CC70623B853B8169EB0000007C01000008000000636F72652E786D6C8D90416EC3201045AF62CDB6C206821CC7C244919D9CA01740401C94182C03558F5F9C3852BBEB6A467FFE9B197D7EFC9E1EC5975982F5AE035262288C535E5B377690E21535501C055FBC8FBF6C503839990E
310
5619041F179FE64D52DE45E362569DD7661365082642A11EB9E920A89B99642953CC8E702F67A9EE7234257977194EC9EAE275C4EABCCF5EAD5940D4AC6F0E35A568B8F43562CD7046CD199FD07E60174276A7BE677B5EADB0E0D14EEFFB6A31321A0D82627C4084204C3F096B71DD52F6819B16635EADF63F509AF53FA164
310
5DDCD1EDDD17164090FCC8732078B56691CB33A85CD7DCC40F504B0304140006080800CC70623B55019EA25F0000007C00000007000000636E782E786D6C4DCB3B0E80201045D1AD90E915ED2CF8AC45050C11660C8261F98AB1B07AC9C97D42D718D865D3E909258CFD00CCE24AC6E326A164D74DC0B4128928FF32603847
310
2BA13128B1252AC747C6BAB984FC68F0B87FE8960A5C09FE86CFB69FBA01504B0304140006080800CC70623BDBABAAF470010000D40300000C0000006662782F636F72652E786D6CC553D16E823014FD95A6AF4B694182CC941A83FA05FB810A9511A125A5257EFE2E82712ECEB8A7F100CD39F7F69E734AF9FADC366850B6
310
AF8DCE7018308C942E4C59EB2AC3DE1D498AD15A706B8CFB56869196ADCAF00863C12B6B7C374385D14E6907A836A59A41D9F7CA615434B0C8705F7CAA5606D23BA8E84F41278B93AC54100640439DE0BDB320004D43C63716C7C399D30917DCFBBA9CD9BA8469F5B156168B24CED3F7248AC8769F27244EB73B92EED8862C
310
B7F13E0C179B3C8F979C8ECD82BBBABDAA2BAC924E9558448CBD9330242CFA08E3154B5651FCC6D215639C8EE5774DBE2B5F6CF2B5768B68963BB5F5588420E442FC700B1139D4CB01F450C1E918227C2E09DF070D8140C84E1E9AAB8F1340832A9CB13130A5F1376A908D57309505ECF2A0DF179C4E9D30F5B239B87E3823
310
7A79C6F31DE1A8A5AEC08474B03C7837EAE4938639B44E5932B833D2C6B6B279CDC613877FA26EE21F4A2A4C63EC7F29A2F301D1F9F7A0E37D145F504B0304140006080800CC70623B9C113CC27E0000009D0000000B0000006662782F636E782E786D6C4DCCDF0A83201C86E15B91DFB94BFB330DD428C8FB886521330DA7
310
6397BF1A1DECE883878F57749FCDA1B7892F1BBC047A23808C7F84D9FA55424E0BE6803A256208E9EF06C84F9B91703228B1C690F78B66B34CD9A5439DF5CF0BFBF65E35BCA1B8D6A5C6F540381E886698B5741C695F9503EBA150A2F8958E3DC3EA0B504B0304140006080800CC70623B7DF2F77C2A010000120200003100
310
00006662782F41393633353835312D344632462D344230382D423046372D3739314545314133324237412F636F72652E786D6C8D51DB8EC22014FC15C2939B0D2DB4B45643319AE817EC0F6041255A68B86CFCFC856D4D76DF7CE190393373060EDB3DC707F856CE6B6B7A480A0C81328395DA5C7B18C3057510EC3873D686
310
3F34088C18550F330C39BB3A1BA7051AAC09CA84841A2BD5020AEF55806078A44B0FFD7053A328440C89E1EFC52486BBB8AA8214A99D789CF9E05200300FC927E4FB4D5B375D43103D5527440FB843077C5AA3F5861C8F645F5787F59E95B390B318B55CE45AA638FAA2957BD7248B390B7A7CC51F9C124149C82B8C378810
310
84AB2F42B7B8DD56F413775B8C5999E9FF4471926F8AA236A1AE96B8B3CC434E5839373893369E1FAF30EA395917409EB7F26AF8801C171837A4A6AC9C89E9F9C9B1A58BA30FD6A5EF5DDDCF894B9AD9B6A59C957943A9FCAE2FD5BC4DFE03504B0304140006080800CC70623BAD7543B64E01000033030000300000006662
310
782F41393633353835312D344632462D344230382D423046372D3739314545314133324237412F636E782E786D6CD593CD6EC32010845F0571AD6CE3D48AD20813A9873E410FBD12D82434182C7EAAE6EDBB2424CD25871E7B41D6EC30B3FA84F9E67BB2E40B4234DE8DB46F1925E094D7C6ED479AD3AE5951B2113C789FEE
310
6C943839C1488B4C05DF079FE72A69D8C96C13AAD6B8631503449F83828872B949AC57D26200B826A308D316B4064D6E46FCDA41C05550DC9E483A00797BFD207EFB092A45DE9514C1BBD22178396BD39D891265658C238DEA00936C654E5E433CB65A26D9F6EDB5EBC14EBF49A45CB856E66048291F6939A9A81BB5C89177
310
38143CA680F4AA299D66A042CEB3354A2684DC9D8D178FE0D9B8B41CAAD720F880EE7EF93C0C18769E099ECC04D5A102C8049A8A05632F4DDF376CF1DE0F6BB65C2F8627B65A33C6BB62177CEBBDAD973006829F89F22E814B54F4BC2BE347F8AA8F681390B50FA73F804400B5F542E796F19FF974E7F78DB802FE05E20750
310
4B0304140006080800CC70623BE75B7789680500003C100000340000006662782F41393633353835312D344632462D344230382D423046372D3739314545314133324237412F6F626A656374732E786D6CAD575B8F9B3818FD2B887D06C22499CB8AA1CA655245D5B455A356FB305264C061D8018C6C3393D95FBFC7600890
310
A4CD5EF210B0B1BFEBF98E3F7B1FF6596ABC522E1296DF9BAE3D320D9A872C4AF2F8DE2CE5CEBA358D0FBEC719939D65A691938CDE9B6ADAF4BD98B3B2D05311DD91329583D9D5FC0F438434A7A611A644887B5384CF34233629258BA878B12322891DEFF6B66BD70BFB62634E8AE781D082709A4B588AF91C528CDA28B73F
310
1C998EEF39EABBEFA97FBD6A7C7E9553F9D3D79FE442923C3C523610337627CB87ABE99D359D4CC6D6E4FACAB5E6ABF9D2726FC6A3C5F56271377BB88362213924694B38DD99FE47C48627A1E7D49F5A8BB5E1A74C0A599ED3B0F21F1E56366B89112D681E218F0915D0D6F17AD41FBA2A369DCF6335D62ABBD39779D5DDD1
310
11D4D8DE3CBB96B2E04FB8202E41051754A1AA8E8F76B4C6DFE810B580B1547F4B84911149794252234D024EF8BBE963A95AE27B3D310A9D5C215C7960FAEE415ED75694C6AFB17BCACA5D99A60A9AA65F217B0BFC53292ACB92BF283FAD0D3621576592CB5BED907C2FA8E9DF794E35E97BEA31BED21FEB401ABB94C44839
310
DCACBF0E1C5DA8DA5B2F4DFFD32AD86F543D9E565E7056502E157C00AD2671CD534549AB752FCA9CDA00677A313F04E51B22FF19E57B300579E3C97EB29F682D92935CEC18CF901B7B54FD8C51F362B56FC72FE0B3C1EAE335EDCCBF5AEC39ADB17DC238973F804BA5E6F6BFE7AF1FB32E523BE9F3BD571418E3631DCA4D48
310
5250CF639223210A9446CA30052EDF057BD35F8329C1ECD84552BF0DC8D18BE7BCE23BFE6BD960AB4A7DE79923A103BEBD80F911CBAA2C60DB19B01CF164A5583B772EE6D3FFA56666CBCDA74DC97724A48F9A58967497E489C4D979006FD7A05E227A1EBDD0F737C623387A9C844D3709995625106D157315F8B8392CD4E0
310
A0B9A720C4BE9829CEF37EA1E13111214D53925356365ADA634861B52519DD27A00AEB808EAF0628E6F435519D446F45CF2C9CF5214F0A15B2F6D06B79DA3EE3CBF7F56780D2F4E7EF73A0F5E5B02A38D07DC852C6B7C1FBB6664213E0C39E3EBA7FF4E1AD23EA2829407C85E586727488B751B2DB9502BC7B228A3FD68B6E
310
A65A22397E690AA8D158D7E404EC8CDA235CC3B7D1898680131CEC2CDF2638C65196279577750F15884AEE19F94199155B92B13297978469D4F8D358DF0AEF7631E28DC8F0D9F437D5D39A83B2231A1D52D543813A824EF8D44BCFF2FA6A31BD1E8DAD87F1CCB526B3879935BF59CDADD5C37479BB1CDD4CA7B3556B516589
310
EF352754B706114D9C885EC9131DE6EFEB43D99AFE2391C2F958179413D7CFEF6B1B6DB1E7600F00DE6E5C67454A339A4BA2E0FBA85ED26F045D454F463DBFCE484C2F90F2E5E3666003662ED8F755951A7D1BECD5B30B550B2785C8E7320B7292A4838DDA71BBC863ED7613CAF659337A3354231D4FF4A182A54904C2898C
310
98B28C4AD0CE056CCF332A80986E571EE9DBC305BB5FEB7E509220A58D25CF042D712A806AC0AD0C657FDEF80D2D9CEAA2EE4D1C76F60BFE74219A06527D6F82DF6412526107381E55E353090704D085B52408A8913C4ED159D79BDA71BB4BC506F4831350EB6F975CD22D69BF7AC49B91A2C0A9DDA3D5CA36AD20FC478E37
310
E61844E2352865EBCB61A275A65283CAAA9DD27703B4102F5AF51EF5F573B75CBB5AD38BC845F7A49F82A0966A49C2E3EA5EA0ECD326CD965F1DB402C6FA8B51A4658C5C5E2EC9E214602E55810345408596591009A82E7E7FFACA19EEA299B14A0081A705CB3296EBC14CDF658DCD336EA6D1136881AAEB87B81AB9EE53D5
310
F5EB8BC8362082DA24122F98680A4E7930C01A0079749CEA14382A0783E5EBA5A10F8C098456A03D6A4AEB6BB881E2513747552A5DB22C7EDAF83BD5528081A365F7FF06504B0304140006080000CC70623B000000000000000000000000350000006662782F41393633353835312D344632462D344230382D423046372D37
310
39314545314133324237412F76657274696365732E62696E504B0304140006080800CC70623BF270F1330600000004000000360000006662782F41393633353835312D344632462D344230382D423046372D3739314545314133324237412F747269616E676C65732E62696E636660600000504B0304140006080000CC7062
310
3B000000000000000000000000370000006662782F41393633353835312D344632462D344230382D423046372D3739314545314133324237412F617474726962757465732E62696E504B0304140006080800CC70623B08DA0BD19000000041010000360000006662782F41393633353835312D344632462D344230382D4230
310
46372D3739314545314133324237412F6469726563746F72792E786D6C858F410AC3201045AF22B36F53E9A60B35CBEEBAE80D244E44489C6234F4F835464A48035D0DF398FF9F8AF63D0E6CC63039F212F8F9020C7D47C6792B21C5FE7403D62A1188E2E60C98D7234A5830286103A55745067B9D86B8A3CF9C7F90C11DE6
310
07FB144396D7B6A82D282E9A152AD114D5EF2CB866EEE831B8EEA07A7BB5A8D7D61A2BAAEB7FD5F70921FF497D00504B0304140006080800CC70623BEDD1DC58FD000000A00100003B0000006662782F41393633353835312D344632462D344230382D423046372D3739314545314133324237412F7265736F75726365732F
310
636F72652E786D6C8D504B6E833010BD0A9A6D65B00922041947112427E8052C33A156828DFCA97AFC9A40A576D7CDCCE87D344F8F9FBFE667F689CE6B6B3A6039850C8DB2A336530731DC4903D95970676DF82583CCC8193B5861107C72362E3BA4AC096842428D1D7107A5F7182053CF7474E0D507CE32973124857FE48B
310
540F3961CEF244279DE03EB81420DB9EAC1384436FA353E879B1B182C7A8C75DA3C7F453DF353A1075D537A7BA6464B8F535A99AE14A9A2BBD90E350DD183B5CFABE3AF262350B1EF4FC9351399401471025A527C218A1E53BAB5A5AB765F5469B96525EACF23FA6B88CFF34456DC2A1DCE36E360F82A5202F42F062ED2BAD
310
579969AFDD8A6F504B010214000A0000080000CC70623B3DEE336E79000000790000001B00000000000000000000000000000000006175746F6465736B2D64657369676E2D7061636B6167652E786D6C504B01021400140006080800CC70623BD486FD9CA0000000F40000001300000000000000000000000000B20000005B
310
436F6E74656E745F54797065735D2E786D6C504B01021400140006080800CC70623B853B8169EB0000007C010000080000000000000000000000000083010000636F72652E786D6C504B01021400140006080800CC70623B55019EA25F0000007C000000070000000000000000000000000094020000636E782E786D6C504B
310
01021400140006080800CC70623BDBABAAF470010000D40300000C00000000000000000000000000180300006662782F636F72652E786D6C504B01021400140006080800CC70623B9C113CC27E0000009D0000000B00000000000000000000000000B20400006662782F636E782E786D6C504B01021400140006080800CC70
310
623B7DF2F77C2A010000120200003100000000000000000000000000590500006662782F41393633353835312D344632462D344230382D423046372D3739314545314133324237412F636F72652E786D6C504B01021400140006080800CC70623BAD7543B64E010000330300003000000000000000000000000000D2060000
310
6662782F41393633353835312D344632462D344230382D423046372D3739314545314133324237412F636E782E786D6C504B01021400140006080800CC70623BE75B7789680500003C10000034000000000000000000000000006E0800006662782F41393633353835312D344632462D344230382D423046372D3739314545
310
314133324237412F6F626A656374732E786D6C504B01021400140006080000CC70623B0000000000000000000000003500000000000000000000000000280E00006662782F41393633353835312D344632462D344230382D423046372D3739314545314133324237412F76657274696365732E62696E504B01021400140006
310
080800CC70623BF270F133060000000400000036000000000000000000000000007B0E00006662782F41393633353835312D344632462D344230382D423046372D3739314545314133324237412F747269616E676C65732E62696E504B01021400140006080000CC70623B0000000000000000000000003700000000000000
310
000000000000D50E00006662782F41393633353835312D344632462D344230382D423046372D3739314545314133324237412F617474726962757465732E62696E504B01021400140006080800CC70623B08DA0BD1900000004101000036000000000000000000000000002A0F00006662782F41393633353835312D344632
310
462D344230382D423046372D3739314545314133324237412F6469726563746F72792E786D6C504B01021400140006080800CC70623BEDD1DC58FD000000A00100003B000000000000000000000000000E1000006662782F41393633353835312D344632462D344230382D423046372D3739314545314133324237412F7265
310
736F75726365732F636F72652E786D6C504B0506000000000E000E0080040000641100000000
  0
XRECORD
  5
1F8
102
{ACAD_REACTORS
330
1F7
102
}
330
1F7
100
AcDbXrecord
280
     1
 70
     1
 90
429727718
  1
30362254-06B7-45E0-A893-8CFA70E3D6BC
310
504B03040A0000080000CC70623B3DEE336E79000000790000001B0000006175746F6465736B2D64657369676E2D7061636B6167652E786D6C3C3F786D6C2076657273696F6E3D22312E302220656E636F64696E673D227574662D3822203F3E3C666F726D6174733E3C666F726D61743E687474703A2F2F736368656D612E
310
6175746F6465736B2E636F6D2F64657369676E2D7061636B6167652F323030393C2F666F726D61743E3C2F666F726D6174733E504B0304140006080800CC70623BD486FD9CA0000000F4000000130000005B436F6E74656E745F54797065735D2E786D6C7D8EC10E82300C865F65E91D8A1E8C310C0EEA1BF002731658846E
310
D98AC1B77784ABF1D8FE5FBFBF75BBCE937A534CCEB38643598122B6FEE978D0B0485F9C41B54DDD7D022595594E1A469170414C76A4D9A4D207E29CF43ECE46F218070CC6BECC4078ACAA135ACF422C856C0E68EA1BF5669944DDD7BCDE7B1F8E415D77AECB980613C2E4AC91FC167A2B244592486606FC29C8FD7F045B9A
310
EF7053A7E60B504B0304140006080800CC70623B1EC5D7A3EB0000007C01000008000000636F72652E786D6C8D90416EC3201045AF82665B6103C6756C6122AB4D4ED00B204C5C94182C03558F5F9C3852BBEB6A467FFE9B197D71FC9E6FE8CBACC17AD7032D0820E3B41FAD9B7A48F1820F808E52ACDEC75F36404ECDA687
310
4D0629A6D5A76597B477D1B89855E747B38B2A041301E95B6E7A08FAD3CCAA50296647B8168BD2573599823EBB0CA76447F43862C7BCCF5EAC59410E4DDD9C7973C2755553CCCFA4C603E3040F1565ED3B1FDE4E432BCA0D9622DAF9795FAF464533826484B498524CD807E51D79ED187F21878E10516EF63F505AC67F42C9
310
BA58B1FDDD071640D2FCC87D2045B96591CB3DA85CB7DCE40F504B0304140006080800CC70623B55019EA25F0000007C00000007000000636E782E786D6C4DCB3B0E80201045D1AD90E915ED2CF8AC45050C11660C8261F98AB1B07AC9C97D42D718D865D3E909258CFD00CCE24AC6E326A164D74DC0B4128928FF32603847
310
2BA13128B1252AC747C6BAB984FC68F0B87FE8960A5C09FE86CFB69FBA01504B0304140006080800CC70623B8C9102E971010000D40300000C0000006662782F636F72652E786D6CC5535B6E833010BC8AE5DF0A6C08340F1947A84D4ED00B38C6A128602363A31CBFCB234A53A551FA553EC09AD9F5CE8C31DB9E9B1AF5CA
310
7695D1198E428A91D2D214952E33ECDD315861B4E5CC1AE3BE9561A445A3323CC098B3D21ADFCE9034DA29ED00D5A6503328BA4E398C640D8B0C77F253352214DE4145770A5B214FA2546114020D759C75CE8200340D19DE981F0F6746269C33EFAB6266AB02A655C74A59CCF365BADC27CB5D902ED22848F6340DF238A141
310
BE88E2F57B92BFEDF23523433367AE6A2EEAA455C2A902F398D2751045018D3FA264435F3771F242571B4A1919CA6F9A7C5B3CD9E42BED16F12C776AEB308F40C848FC700B1139D4891EF410CEC810227CC6846F8386402064270EF5C5C709A05E49676C024C61FC95EA45ED154CA5211D1FF4FB8291A913A68E9B83EBBB33
310
E2A7673CDE118E5AE8124C0807CB8377834E366998436B950D7A7746DAD846D4CFD978E0F04FD455FC5D49D2D4C6FE9722321F10997F0F32DC47FE05504B0304140006080800CC70623BFFEA85907E0000009D0000000B0000006662782F636E782E786D6C4DCCD10A83201886E15B91FFDC95D95A811AB6F23E625948A6C3
310
E9D8E5AF46073BFAE0E1E365ED67B3E8ADC3CB78C7815C7240DA3DFC64DCC221C519D7805AC182F7F1EF06C88D9BE6703008B6049F9E274D7A1E938DBB5AE3D6131B2589BA0D3D965551E0B2EA732C9B9A624AAEB41E3A557677029960D9AFB4EF11165F504B0304140006080800CC70623B4FEEA4082C0100001202000031
310
0000006662782F39464131463745442D413632322D343644302D413938332D3331353338454246344243312F636F72652E786D6C8D515B6EC32010BC0AE2AB55850DD871ED0813254D72825EC00192A2C460F1A872FC42ED48ED5F7E00CDCECCCEB26C731F6FE05B39AFADE921293004CA082BB5B9F43086336A21D870E6AC
310
0D7F68109861543DCC30E4ECE26C9C164858139409093556AA051CBC570102714B8F1E7AF1A5C6A11862480C7F2DA6415C878B2A4891CA89C7990F2E050073937C42DE1DB7E4F87ED8A36D4329AA9B3D46DBAEAD504556557BD81DEBDD0761E52CE42C462D17B996298E3E6BE59E35C962CE821E1FF18553435012728A7187
310
0841987E927A8D9B35ADDF70BBC6989599FE4F1427F9A4286A132ABAC49D651EF234CD5CE04CDA78BA3DC2A8FB645D00B9DF8B57E215725C60BCA2A463E54C4CE327C7A65E1C7DB02E7DEFCBF594B864C5CA6CDBD49C957943E9FA5D5FBAF336F90F504B0304140006080800CC70623BAD7543B64E01000033030000300000
310
006662782F39464131463745442D413632322D343644302D413938332D3331353338454246344243312F636E782E786D6CD593CD6EC32010845F0571AD6CE3D48AD20813A9873E410FBD12D82434182C7EAAE6EDBB2424CD25871E7B41D6EC30B3FA84F9E67BB2E40B4234DE8DB46F1925E094D7C6ED479AD3AE5951B2113C
310
789FEE6C943839C1488B4C05DF079FE72A69D8C96C13AAD6B8631503449F83828872B949AC57D26200B826A308D316B4064D6E46FCDA41C05550DC9E483A00797BFD207EFB092A45DE9514C1BBD22178396BD39D891265658C238DEA00936C654E5E433CB65A26D9F6EDB5EBC14EBF49A45CB856E66048291F6939A9A81BB5
310
C8917738143CA680F4AA299D66A042CEB3354A2684DC9D8D178FE0D9B8B41CAAD720F880EE7EF93C0C18769E099ECC04D5A102C8049A8A05632F4DDF376CF1DE0F6BB65C2F8627B65A33C6BB62177CEBBDAD973006829F89F22E814B54F4BC2BE347F8AA8F681390B50FA73F804400B5F542E796F19FF974E7F78DB802FE05
310
E207504B0304140006080800CC70623B16AB87BA640500003C100000340000006662782F39464131463745442D413632322D343644302D413938332D3331353338454246344243312F6F626A656374732E786D6CAD575B6FA33818FD2B887DE6924B3BED8A326A92B68A663B534DD4D13E548A0C38942D60649B369D5FBFC7
310
600890A493BDE42160637FD7F31D7FF63E6FB3D478A55C242CBF3247B66B1A340F5994E4F19559CA8D75611A9F7D8F33263BCB4C232719BD32D5B4E97B316765A1A722BA21652A07B3B7B33F0D11D29C9A46981221AE4C113ED38CD8A4942CA2E2C58E882476BCD9DA23BB5ED8171B73523C0F841684D35CC252CCE79062D4
310
468DFA43D7747CCF51DF7D4FFDEB5593E3AB9CCA9FBEFE241792E4E19EB28198C968BAB8199F5D5A67D3E9C49A9E8F47D6EC76B6B0469F26EEFC7C3EBFBCBEB98462213924694B38DD98FE1D62C393D073EA4FADC5DAF04326852CCF6958F90F0F2B9BB5C48816348F90C7840A68EB78EDF68723159BCEE7891A6B95DDE9D3
310
BCEAEEE8086A6C6F9E5D4B59F0175C10A7A0820BAA5055C7473B5AE3CFDD452D602CD5DF12616444529E90D448938013FE6EFA58AA96F85E4F8C42275708571E98FE6827AF6B2B4AE3D7D83D64E5A64C53054DD3AF90BD06FEA9149565C94FCA0F6B834DC85599E4F2423B24DF0B6AFA979E534DFA9E7A4CC6FA631D486393
310
921829879BF5D781A373557BCB85E97FB90DB62B558F8795179C15944B051F40AB495CF35451D26A4727654E6D8033BD98EF82F21D91FF8AF2DD9982BCF1643BDD4EB516C9492E368C67C88DED563FC36D5EACF66DFF057C3658BDBFA69DF9578B3DA735B64F18C7F20770A9D45CFCF7FCF563D6456A277DBEF78A02637CA2
310
43B90A490AEAB94F72244481D24819A6C0E59B606BFA4B3025981DBB48EAB701D97BF19C577CC77F2D1B6C55A9EF3C732474C0B727303F625995056C3B02963D9EAC146BE78EC5FCEC7FA999EBC5EACBAAE41B12D27B4D2C0BBA49F244E2ECDC81B76B502F113D8F5EE8FB1BE3111CDD4FC2AA9B844CAB1288B68AB90A7CDC
310
1C166AB0D3DC5310625FCC14E779BFD0709F8890A629C9292B1B2DED31A4B0DA928CEE135085754027E3018A397D4D5427D15BD1330B677DC8934285AC3DF45A9EB68FF8F2B8FC0A509AFEECFD0FF2DE25CC6047F7214B195F07EFEB9A094D800F7BFAE8FED187B78EA8A3A400F115961BCAD1215E47C966530AF0EE8128FE
310
58CEBB996A8964FFA529A046635D9353B0336A8F700DDF46271A024E70B0B37C9DE01847591E54DED53D54202AB947E4076556AC49C6CA5C9E1226B7F1A7B1BE15DEED62C41B91E1B3E9AFAAA735036547343A925075041DF0A9979E893B391F8FCFA6967B3EFB644DCF6E5CEBFAE272625DCC6FAF3FB93793C5F90CE1EF57
310
407342756B10D1C489E8953CD1617E5CEECAD6F4EF8914CE5D5D504E5C3F1F9736DA62CFC11E00BCDDB8CC8A9466349744C1F75EBDA4DF09BA8A9E8C7A7E9991989E20E5DBDD6A6003664ED8F7A04A8DBE0DF6EAD9B9AA858342E47399053949D2C146EDB85DE4B176BB0965FBAC19BD19AA918E27FA50C1D22402E144464C
310
59462568E704B6E71915404CB72B8FF4EDE184DDAF753F284990D2C6926782963815403548A70C657FDEF80D2D9CEAA2AE4C1C76F60BFE74219A06527D6582DF6412526107381E55E353090704D085B52408D0933C4ED159D79BDA71BB4BC506F4831350EB6F979CD22D69BF7AC49B91A2C0A9DDA3D5CA36AD20FC478E37E6
310
1844E2352865EBCB6EA275A652E3836BE04EFB400BF1A2556F515F1FBB35B2AB35BD889C744FFA1004B5544B121E57F70215746DD2F5E2C1412B602CBF19455AC6C8E5E9922C4E01E65215385004546899059180EAFCF7A707CE7017CD8CDB0410789AB32C63B91E5CEBBBACB17AC6CD347A022D5075FD106377347AAABA7E
310
7D11590744509B44E205134DC1290F06580320F78E537D3D73540E06CB970B431F185308AD40BBD794D6D77003C5A36E8EAA54BA64597CD8F83BD552A080A365F7FF06504B0304140006080000CC70623B000000000000000000000000350000006662782F39464131463745442D413632322D343644302D413938332D3331
310
353338454246344243312F76657274696365732E62696E504B0304140006080800CC70623BF270F1330600000004000000360000006662782F39464131463745442D413632322D343644302D413938332D3331353338454246344243312F747269616E676C65732E62696E636660600000504B0304140006080000CC70623B
310
000000000000000000000000370000006662782F39464131463745442D413632322D343644302D413938332D3331353338454246344243312F617474726962757465732E62696E504B0304140006080800CC70623B08DA0BD19000000041010000360000006662782F39464131463745442D413632322D343644302D413938
310
332D3331353338454246344243312F6469726563746F72792E786D6C858F410AC3201045AF22B36F53E9A60B35CBEEBAE80D244E44489C6234F4F835464A48035D0DF398FF9F8AF63D0E6CC63039F212F8F9020C7D47C6792B21C5FE7403D62A1188E2E60C98D7234A5830286103A55745067B9D86B8A3CF9C7F90C11DE607
310
FB144396D7B6A82D282E9A152AD114D5EF2CB866EEE831B8EEA07A7BB5A8D7D61A2BAAEB7FD5F70921FF497D00504B0304140006080800CC70623B0D6EF93BFE000000A00100003B0000006662782F39464131463745442D413632322D343644302D413938332D3331353338454246344243312F7265736F75726365732F63
310
6F72652E786D6C8D50596E833010BD0A9ADFCA60B334011947A8694ED00B586642AC041B79A97AFC9A40A5F6AF3F33A3B7689E1E3F7DCD8FEC139DD7D6F4C0720A191A65476DA61E62B892236427C19DB5E1970C322367EC618541F0C9D9B8EC90B226A009093576C41D94DE63804C3DD2D18357379C652E63480A7FCF17A9
310
EE72C29CE5894E3AC17D702940B63D59270887DE46A7D0F36263058F518FBB468FE9A7BE6A7420864373B8D4873369AA8691FA421B3294352543C5CAF65C0F6FEF43CB8BD52C78D0F34F46E550061C419494B6843142CB0F5677F4B52BEB177AEC28E5C52AFF638ACBF84F53D42654E51E77B379102C05791282176B5F693D
310
CB4C7BED567C03504B010214000A0000080000CC70623B3DEE336E79000000790000001B00000000000000000000000000000000006175746F6465736B2D64657369676E2D7061636B6167652E786D6C504B01021400140006080800CC70623BD486FD9CA0000000F40000001300000000000000000000000000B20000005B
310
436F6E74656E745F54797065735D2E786D6C504B01021400140006080800CC70623B1EC5D7A3EB0000007C010000080000000000000000000000000083010000636F72652E786D6C504B01021400140006080800CC70623B55019EA25F0000007C000000070000000000000000000000000094020000636E782E786D6C504B
310
01021400140006080800CC70623B8C9102E971010000D40300000C00000000000000000000000000180300006662782F636F72652E786D6C504B01021400140006080800CC70623BFFEA85907E0000009D0000000B00000000000000000000000000B30400006662782F636E782E786D6C504B01021400140006080800CC70
310
623B4FEEA4082C0100001202000031000000000000000000000000005A0500006662782F39464131463745442D413632322D343644302D413938332D3331353338454246344243312F636F72652E786D6C504B01021400140006080800CC70623BAD7543B64E010000330300003000000000000000000000000000D5060000
310
6662782F39464131463745442D413632322D343644302D413938332D3331353338454246344243312F636E782E786D6C504B01021400140006080800CC70623B16AB87BA640500003C1000003400000000000000000000000000710800006662782F39464131463745442D413632322D343644302D413938332D3331353338
310
454246344243312F6F626A656374732E786D6C504B01021400140006080000CC70623B0000000000000000000000003500000000000000000000000000270E00006662782F39464131463745442D413632322D343644302D413938332D3331353338454246344243312F76657274696365732E62696E504B01021400140006
310
080800CC70623BF270F133060000000400000036000000000000000000000000007A0E00006662782F39464131463745442D413632322D343644302D413938332D3331353338454246344243312F747269616E676C65732E62696E504B01021400140006080000CC70623B0000000000000000000000003700000000000000
310
000000000000D40E00006662782F39464131463745442D413632322D343644302D413938332D3331353338454246344243312F617474726962757465732E62696E504B01021400140006080800CC70623B08DA0BD190000000410100003600000000000000000000000000290F00006662782F39464131463745442D413632
310
322D343644302D413938332D3331353338454246344243312F6469726563746F72792E786D6C504B01021400140006080800CC70623B0D6EF93BFE000000A00100003B000000000000000000000000000D1000006662782F39464131463745442D413632322D343644302D413938332D3331353338454246344243312F7265
310
736F75726365732F636F72652E786D6C504B0506000000000E000E0080040000641100000000
  0
XRECORD
  5
175
102
{ACAD_REACTORS
330
173
102
}
330
173
100
AcDbXrecord
280
     1
270
     1
271
     1
  0
XRECORD
  5
174
102
{ACAD_REACTORS
330
173
102
}
330
173
100
AcDbXrecord
280
     1
270
     1
271
     1
  0
XRECORD
  5
1FB
102
{ACAD_REACTORS
330
173
102
}
330
173
100
AcDbXrecord
280
     1
 70
     0
 90
1673772943
  1
ECE7A1D2-D628-4531-984C-D00F80459256
310
504B03040A0000080000CC70623B3DEE336E79000000790000001B0000006175746F6465736B2D64657369676E2D7061636B6167652E786D6C3C3F786D6C2076657273696F6E3D22312E302220656E636F64696E673D227574662D3822203F3E3C666F726D6174733E3C666F726D61743E687474703A2F2F736368656D612E
310
6175746F6465736B2E636F6D2F64657369676E2D7061636B6167652F323030393C2F666F726D61743E3C2F666F726D6174733E504B0304140006080800CC70623BD486FD9CA0000000F4000000130000005B436F6E74656E745F54797065735D2E786D6C7D8EC10E82300C865F65E91D8A1E8C310C0EEA1BF002731658846E
310
D98AC1B77784ABF1D8FE5FBFBF75BBCE937A534CCEB38643598122B6FEE978D0B0485F9C41B54DDD7D022595594E1A469170414C76A4D9A4D207E29CF43ECE46F218070CC6BECC4078ACAA135ACF422C856C0E68EA1BF5669944DDD7BCDE7B1F8E415D77AECB980613C2E4AC91FC167A2B244592486606FC29C8FD7F045B9A
310
EF7053A7E60B504B0304140006080800CC70623BD9DDAED0EC0000007C01000008000000636F72652E786D6C8D90416EC3201045AF82665B61836D9CD8C2444DD39CA01740405C94182C03558F5F9C3852BBEB6A467FFE9B197D7EF89E6EE8CB2CC17A37002D0820E394D7D68D03A478C17B4007C117EFE32F1B20272733C0
310
2A83E0E3E2D3BC49CABB685CCCAAF3DA6CA20CC14440EA969B0182FA34932C648AD911AEC52CD5558EA6A0CF2EC329598D1E47ACCEFBECC59A050463A7EA5833865FEBDD0E37353BE3EE8DBDE3F6786A48D375FBF6CC78B9C282473B3DEFABC5C86834888A900E538A49F5419B9EB47DD5BC907D4F082F57FB1F28CDFA9F50
310
B22ED6D5F6EE030B20687EE43E10BC5CB3C8E51E54AE6B6EE207504B0304140006080800CC70623B55019EA25F0000007C00000007000000636E782E786D6C4DCB3B0E80201045D1AD90E915ED2CF8AC45050C11660C8261F98AB1B07AC9C97D42D718D865D3E909258CFD00CCE24AC6E326A164D74DC0B4128928FF326038
310
472BA13128B1252AC747C6BAB984FC68F0B87FE8960A5C09FE86CFB69FBA01504B0304140006080800CC70623BA24EB22D72010000D40300000C0000006662782F636F72652E786D6CC5535B6E833010BC8AE5DF0A6C5E49888CA3A6694ED00B38E05014B091B1518EDFE511A5A9D228FD2A1F60CDEC7A67C6986DCE4D8D7A
310
69BA4AAB0C073EC548AA5C17952A33ECECD15B61B4E1CC686DBF9561A44423333CC098B3D268D7CE50AE9595CA02AA74216750749DB418E5352C32DCE59FB211BE70162ABA93DF8AFC244AE9073ED050C759670D0840D390E18DF9F1706664C23973AE2A66B62A605A75ACA4C13C4976E1364A12EF355A2EBD384AF65EFA96
310
BC7B8BED2EA6719AAE16FB8491A199335B351775B991C2CA02F390D2D40B028F861F41BCA68B7518BFD0D59A524686F29B26D7164F36B94AD9289CE54E6D1DE6010819891F6E21228B3AD1831EC219194284CF98F06DD01008846CC5A1BEF83801D4CBDC6A1303536877A57A513B0953A94FC707FDBE6064EA84A9E3E6E0FA
310
EE8CF0E9198F7784A316AA0413C2C2F2E0ECA0934D1AE6D05A69BCDE9E91D2A611F573361E38FC1375157F5752AE6B6DFE4B11990F88CCBF0719EE23FF02504B0304140006080800CC70623B408A7D3B7C0000009D0000000B0000006662782F636E782E786D6C4DCCD10A83201886E15B91FFDC552A92A0064DBC8F581632
310
D3703A76F9ABD1C18E3E78F878E5F0D9027ABBFCF2292AE86E2D20171F69F6715550CB827B40839639A5F2770314A7CD293819B45C73AAFB45B35BA61ACAA1C1C7E7855C58C15BC331339661262CC762340413D68D77DA5B42298546CBE6573AF60CEB2F504B0304140006080800CC70623B449FB9BD290100001202000031
310
0000006662782F36394639363044362D344446342D343946362D394244322D3234314243333846323333332F636F72652E786D6C8D515B6EC32010BC0AE22B55850D98B871848994463E412FE002495162B07854397EA176A4F62F3F2C9A9D991D587EB84F37F0AD7D30CEF6905418026DA553C65E7A98E219ED203808EE9D
310
8B7F6810D871D23D2C3014FCE25D9A57483A1BB58D19B54EE9151C43D0110279CB971E06F9A5A7B11A53CC8C70ADE6515EC78BAE4895DB992778883E0700CB907242D17643D7E2538BD869608875438BBAE38922CAC8F1BDD90DB4691A5E2F42C153326A951B95E398B3D1FE599322163C9AE9115F7A3D46ADA0A018778810
310
84E907617BDCEE297BC5BB3DC6BC2EF47FA234AB2745C9D8D8D035EE220B50105E2F0DC1954B9FB747187D9F9D8FA0CCDB042D5FA0C015C65B42DF78BD10F3F3B363CB56C7109DCFDFBBB97E662ED92EB62D13BC2E1BCAE5777DB9966D8A1F504B0304140006080800CC70623BAD7543B64E01000033030000300000006662
310
782F36394639363044362D344446342D343946362D394244322D3234314243333846323333332F636E782E786D6CD593CD6EC32010845F0571AD6CE3D48AD20813A9873E410FBD12D82434182C7EAAE6EDBB2424CD25871E7B41D6EC30B3FA84F9E67BB2E40B4234DE8DB46F1925E094D7C6ED479AD3AE5951B2113C789FEE
310
6C943839C1488B4C05DF079FE72A69D8C96C13AAD6B8631503449F83828872B949AC57D26200B826A308D316B4064D6E46FCDA41C05550DC9E483A00797BFD207EFB092A45DE9514C1BBD22178396BD39D891265658C238DEA00936C654E5E433CB65A26D9F6EDB5EBC14EBF49A45CB856E66048291F6939A9A81BB5C89177
310
38143CA680F4AA299D66A042CEB3354A2684DC9D8D178FE0D9B8B41CAAD720F880EE7EF93C0C18769E099ECC04D5A102C8049A8A05632F4DDF376CF1DE0F6BB65C2F8627B65A33C6BB62177CEBBDAD973006829F89F22E814B54F4BC2BE347F8AA8F681390B50FA73F804400B5F542E796F19FF974E7F78DB802FE05E20750
310
4B0304140006080800CC70623B8D05915C650500003B100000340000006662782F36394639363044362D344446342D343946362D394244322D3234314243333846323333332F6F626A656374732E786D6CAD575B6FA33814FE2B887D06429276DA1565D4266D158D3A339A6846FB502932E050B66023DB74D2FDF5FB190C01
310
9276B2973C046C8ECFF53B17071F77456EBD502133CEAE6CDF9DD81665314F32965ED995DA3A17B6F5310C04E7AA47665B8C14F4CAD6DB7618A48257A5D94AE89654B91AEDDEDDFC61C998326A5B714EA4BCB265FC440BE2924AF184CA6737218AB8E976E7FA6E4338649B0A523E8D98964450A6A029F619B8588D52FE7039
310
B1BD30F0F4F730D0FF866AF6369557DB33949F31A9088B0F848DD8CCFCF9F2767A76E99CCDE733677E3EF59D9BBB9BA5E37F984D16E78BC5E5F5ED25044B25C0C96822E8D60EEFE11B91C581D77CEA34368A1F5329E68CD1B8B61F16D63A1B8E092D294B10C78C4A48EB593D192E7DED9BDEE7995E1B91FDEDD3ACEA9FE831
310
6A756F9F7D4D79F4274C90A7A04248AA51D5F8C718DAE06FB2F75AC4796EBE65D22A88A22223B995679120E2D50E41AA49C260C046A35368846B0BECD0DFF3EBEB8AD4F835768F69B9ADF25C43D30E6B646F807FAA64AD59F61715C7A54127C4AACA98BA3006A9D792DAE165E0D59B61A01FB3A9F9D838D2DAE62445C86166
310
F37564E842E7DE6A69879FEEA2DD5AE7E371E1A5E025154AC307D06A03D73EB5978C58FFA4C8E9033066E0F3BD53BEC1F39F91BE7B55103791EDE6BBB991A2046172CB4581D8B893FA674DDA17A77B3B7C413D1B511FD2743BFF8A38F03A658705E3ADF8015C3A3417FF3D7E439FF591DA0B5F18BC20C1B8981957AE6392A3
310
F43C640C01D1A0B4728E2DD4F26DB4B3C3152A252A3B4E913CEC1C72F012782FF88EFF8637AA552DBEF76408E8A8DE9E50F9E1CB3A2DA0DB1B6039A893B56063DC5B3E3FFB5F72E67AB9FEB4AEC496C4F4C1149625DD662C53E89D7BF0F6151A046260D1337DFDC94502430F83B0EE07A130A224BCAD7DAE1D9FB6CD422FF6
310
920702629C4BB9AE79C12F243C6432A6794E18E5552BA56B431AAB5D91317302B2B071E86C3A42B1A02F999E24061403B5D0EB639195DA655DD3EBEAB4FB862DDF579F014AD0E73C22F99E28DA57FB98E75C6CA2D74D53086D600F4786E0FE3144B771A8A7B900F03594DB8A633CBC49B2EDB69228BB479CF863B5E807AAAB
310
23872F6DFEB4129B949CA33823F58830E86D65621E10047D9DB34D862E8EAC3C2ABC2F7B2C40D67CDFE01F5545B92105AF983AC54D93D69E56FB8E797F88913F898A9FEC705D3F9D1B54EC8426FB500D40A03BD0119B06E1B95DDC7EB8F6975367793EBD70E66733DFB9BC982F9CE564727731999F5D4ECFCE3B8D6A4DC2A0
310
6D50FD148437D110834A64C6CDDF57FBACB5C307A2A477DFE4939736CFEF2B175371E0E10CF0DD1D5C15654E0BCA14D1E87DD02FF93782A162C0A3D95F1524A52770F972BF1EE9809D13CE7DD599467F8ECE9ADD85CE85A34CD45355448C64F9E8A031DC2D596ACC6E5DD93D9B82DE2EF5CAF81363A8E47996A0DE24564A79
310
4115AACE09C55E14540231FDA13C319787134EBF34E3A022514E5B4D9E0826E25C02D5805B15ABE1BEF51B26383D445DD9E875EE33FE4C22DA16427D65A3BCA92CA6D28DD01DF5DC53330704308475351050232CCD31583787BA75774AFB06E5070DD0C8EF484E19968C5D83BA5B90B244D31E54D55A372320FE4786B7EA58
310
44E135AA5467CB7EA333A61683CC6A8C3257034C10CF46F40EF9F5BE59BE5BD30C3C72D235E95D10345C1D45445A5F0BB47E46A5EBE5570F9380B5FA629579952296A773720405982B9DE04011506178964401AA8BDF1FBF0A8EAB6861DD6580C0E38217056766716DAEB2D6FA0917D3E4116581EADB879C4E7CFFB11EFACD
310
3D641311495D92C8676CB409A72D18610D803CE8A626049E8EC1887CB5B44CC39883690DDA8399B4B9855B481E7D71D4A9D22F96E5BB73BF5793020C02137BF837504B0304140006080000CC70623B000000000000000000000000350000006662782F36394639363044362D344446342D343946362D394244322D32343142
310
43333846323333332F76657274696365732E62696E504B0304140006080800CC70623BF270F1330600000004000000360000006662782F36394639363044362D344446342D343946362D394244322D3234314243333846323333332F747269616E676C65732E62696E636660600000504B0304140006080000CC70623B0000
310
00000000000000000000370000006662782F36394639363044362D344446342D343946362D394244322D3234314243333846323333332F617474726962757465732E62696E504B0304140006080800CC70623B08DA0BD19000000041010000360000006662782F36394639363044362D344446342D343946362D394244322D
310
3234314243333846323333332F6469726563746F72792E786D6C858F410AC3201045AF22B36F53E9A60B35CBEEBAE80D244E44489C6234F4F835464A48035D0DF398FF9F8AF63D0E6CC63039F212F8F9020C7D47C6792B21C5FE7403D62A1188E2E60C98D7234A5830286103A55745067B9D86B8A3CF9C7F90C11DE607FB14
310
4396D7B6A82D282E9A152AD114D5EF2CB866EEE831B8EEA07A7BB5A8D7D61A2BAAEB7FD5F70921FF497D00504B0304140006080800CC70623BCA768048FE000000A00100003B0000006662782F36394639363044362D344446342D343946362D394244322D3234314243333846323333332F7265736F75726365732F636F72
310
652E786D6C8D50596E833010BD0A9ADFCA60D600328E9AA639412F609909B1126CE4A5EAF16B0295DABFFECC8CDEA2797AECF8353F924FB44E193D409E5248504B332A3D0D10FC95B4901C39B3C6F85F3248B49871801506CE266BC2B243D2688FDA47549B11775038871E12F988C7004EDE7016A9083E2ADC3D5D84BC8B09
310
D33C8D74D471E6BC8D0192EDC93A815B742658898E651BCB59086ADC356A8C3FD555A1055ED7E7E254D615792D0F075295F585746FF53B694EE78A565DD736979A65AB9933AFE69F8CD2A2F038022F28ED489E135A7CE4554F9BBEA85E68DB53CAB255FEC71496F19FA6A0B42F8B3DEE6673C0F318E4497096AD7DC5F52C33
310
EEB55BFE0D504B010214000A0000080000CC70623B3DEE336E79000000790000001B00000000000000000000000000000000006175746F6465736B2D64657369676E2D7061636B6167652E786D6C504B01021400140006080800CC70623BD486FD9CA0000000F40000001300000000000000000000000000B20000005B436F
310
6E74656E745F54797065735D2E786D6C504B01021400140006080800CC70623BD9DDAED0EC0000007C010000080000000000000000000000000083010000636F72652E786D6C504B01021400140006080800CC70623B55019EA25F0000007C000000070000000000000000000000000095020000636E782E786D6C504B0102
310
1400140006080800CC70623BA24EB22D72010000D40300000C00000000000000000000000000190300006662782F636F72652E786D6C504B01021400140006080800CC70623B408A7D3B7C0000009D0000000B00000000000000000000000000B50400006662782F636E782E786D6C504B01021400140006080800CC70623B
310
449FB9BD290100001202000031000000000000000000000000005A0500006662782F36394639363044362D344446342D343946362D394244322D3234314243333846323333332F636F72652E786D6C504B01021400140006080800CC70623BAD7543B64E010000330300003000000000000000000000000000D20600006662
310
782F36394639363044362D344446342D343946362D394244322D3234314243333846323333332F636E782E786D6C504B01021400140006080800CC70623B8D05915C650500003B10000034000000000000000000000000006E0800006662782F36394639363044362D344446342D343946362D394244322D32343142433338
310
46323333332F6F626A656374732E786D6C504B01021400140006080000CC70623B0000000000000000000000003500000000000000000000000000250E00006662782F36394639363044362D344446342D343946362D394244322D3234314243333846323333332F76657274696365732E62696E504B010214001400060808
310
00CC70623BF270F13306000000040000003600000000000000000000000000780E00006662782F36394639363044362D344446342D343946362D394244322D3234314243333846323333332F747269616E676C65732E62696E504B01021400140006080000CC70623B00000000000000000000000037000000000000000000
310
00000000D20E00006662782F36394639363044362D344446342D343946362D394244322D3234314243333846323333332F617474726962757465732E62696E504B01021400140006080800CC70623B08DA0BD190000000410100003600000000000000000000000000270F00006662782F36394639363044362D344446342D
310
343946362D394244322D3234314243333846323333332F6469726563746F72792E786D6C504B01021400140006080800CC70623BCA768048FE000000A00100003B000000000000000000000000000B1000006662782F36394639363044362D344446342D343946362D394244322D3234314243333846323333332F7265736F
310
75726365732F636F72652E786D6C504B0506000000000E000E0080040000621100000000
  0
XRECORD
  5
176
102
{ACAD_REACTORS
330
173
102
}
330
173
100
AcDbXrecord
280
     1
270
     1
271
     1
  0
XRECORD
  5
177
102
{ACAD_REACTORS
330
173
102
}
330
173
100
AcDbXrecord
280
     1
270
     1
271
     1
  0
XRECORD
  5
C1D
102
{ACAD_REACTORS
330
2E9
102
}
330
2E9
100
AcDbXrecord
280
     1
102
DISPLAYNAME
  1
Imperial24
102
FLAGS
 90
        0
  0
XRECORD
  5
C1B
102
{ACAD_REACTORS
330
234
102
}
330
234
100
AcDbXrecord
280
     1
102
DISPLAYNAME
  1
Metric50
102
FLAGS
 90
        0
  0
CELLSTYLEMAP
  5
C1A
102
{ACAD_REACTORS
330
162
102
}
330
162
100
AcDbCellStyleMap
 90
        3
300
CELLSTYLE
  1
TABLEFORMAT_BEGIN
 90
        5
170
     1
 91
        0
 92
    32768
 62
   257
 93
        1
300
CONTENTFORMAT
  1
CONTENTFORMAT_BEGIN
 90
        0
 91
        0
 92
      512
 93
        0
300

 40
0.0
140
1.0
 94
        5
 62
     0
340
11
144
6.0
309
CONTENTFORMAT_END
171
     1
301
MARGIN
  1
CELLMARGIN_BEGIN
 40
1.5
 40
1.5
 40
1.5
 40
1.5
 40
0.18
 40
0.18
309
CELLMARGIN_END
 94
        6
 95
        1
302
GRIDFORMAT
  1
GRIDFORMAT_BEGIN
 90
        0
 91
        1
 62
     0
 92
       -2
340
14
 93
        0
 40
1.125
309
GRIDFORMAT_END
 95
        2
302
GRIDFORMAT
  1
GRIDFORMAT_BEGIN
 90
        0
 91
        1
 62
     0
 92
       -2
340
14
 93
        0
 40
1.125
309
GRIDFORMAT_END
 95
        4
302
GRIDFORMAT
  1
GRIDFORMAT_BEGIN
 90
        0
 91
        1
 62
     0
 92
       -2
340
14
 93
        0
 40
1.125
309
GRIDFORMAT_END
 95
        8
302
GRIDFORMAT
  1
GRIDFORMAT_BEGIN
 90
        0
 91
        1
 62
     0
 92
       -2
340
14
 93
        0
 40
1.125
309
GRIDFORMAT_END
 95
       16
302
GRIDFORMAT
  1
GRIDFORMAT_BEGIN
 90
        0
 91
        1
 62
     0
 92
       -2
340
14
 93
        0
 40
1.125
309
GRIDFORMAT_END
 95
       32
302
GRIDFORMAT
  1
GRIDFORMAT_BEGIN
 90
        0
 91
        1
 62
     0
 92
       -2
340
14
 93
        0
 40
1.125
309
GRIDFORMAT_END
309
TABLEFORMAT_END
  1
CELLSTYLE_BEGIN
 90
        1
 91
        1
300
_TITLE
309
CELLSTYLE_END
300
CELLSTYLE
  1
TABLEFORMAT_BEGIN
 90
        5
170
     1
 91
        0
 92
        0
 62
   257
 93
        1
300
CONTENTFORMAT
  1
CONTENTFORMAT_BEGIN
 90
        0
 91
        0
 92
      512
 93
        0
300

 40
0.0
140
1.0
 94
        5
 62
     0
340
11
144
4.5
309
CONTENTFORMAT_END
171
     1
301
MARGIN
  1
CELLMARGIN_BEGIN
 40
1.5
 40
1.5
 40
1.5
 40
1.5
 40
0.18
 40
0.18
309
CELLMARGIN_END
 94
        6
 95
        1
302
GRIDFORMAT
  1
GRIDFORMAT_BEGIN
 90
        0
 91
        1
 62
     0
 92
       -2
340
14
 93
        0
 40
1.125
309
GRIDFORMAT_END
 95
        2
302
GRIDFORMAT
  1
GRIDFORMAT_BEGIN
 90
        0
 91
        1
 62
     0
 92
       -2
340
14
 93
        0
 40
1.125
309
GRIDFORMAT_END
 95
        4
302
GRIDFORMAT
  1
GRIDFORMAT_BEGIN
 90
        0
 91
        1
 62
     0
 92
       -2
340
14
 93
        0
 40
1.125
309
GRIDFORMAT_END
 95
        8
302
GRIDFORMAT
  1
GRIDFORMAT_BEGIN
 90
        0
 91
        1
 62
     0
 92
       -2
340
14
 93
        0
 40
1.125
309
GRIDFORMAT_END
 95
       16
302
GRIDFORMAT
  1
GRIDFORMAT_BEGIN
 90
        0
 91
        1
 62
     0
 92
       -2
340
14
 93
        0
 40
1.125
309
GRIDFORMAT_END
 95
       32
302
GRIDFORMAT
  1
GRIDFORMAT_BEGIN
 90
        0
 91
        1
 62
     0
 92
       -2
340
14
 93
        0
 40
1.125
309
GRIDFORMAT_END
309
TABLEFORMAT_END
  1
CELLSTYLE_BEGIN
 90
        2
 91
        1
300
_HEADER
309
CELLSTYLE_END
300
CELLSTYLE
  1
TABLEFORMAT_BEGIN
 90
        5
170
     1
 91
        0
 92
        0
 62
   257
 93
        1
300
CONTENTFORMAT
  1
CONTENTFORMAT_BEGIN
 90
        0
 91
        0
 92
      512
 93
        0
300

 40
0.0
140
1.0
 94
        2
 62
     0
340
11
144
4.5
309
CONTENTFORMAT_END
171
     1
301
MARGIN
  1
CELLMARGIN_BEGIN
 40
1.5
 40
1.5
 40
1.5
 40
1.5
 40
0.18
 40
0.18
309
CELLMARGIN_END
 94
        6
 95
        1
302
GRIDFORMAT
  1
GRIDFORMAT_BEGIN
 90
        0
 91
        1
 62
     0
 92
       -2
340
14
 93
        0
 40
1.125
309
GRIDFORMAT_END
 95
        2
302
GRIDFORMAT
  1
GRIDFORMAT_BEGIN
 90
        0
 91
        1
 62
     0
 92
       -2
340
14
 93
        0
 40
1.125
309
GRIDFORMAT_END
 95
        4
302
GRIDFORMAT
  1
GRIDFORMAT_BEGIN
 90
        0
 91
        1
 62
     0
 92
       -2
340
14
 93
        0
 40
1.125
309
GRIDFORMAT_END
 95
        8
302
GRIDFORMAT
  1
GRIDFORMAT_BEGIN
 90
        0
 91
        1
 62
     0
 92
       -2
340
14
 93
        0
 40
1.125
309
GRIDFORMAT_END
 95
       16
302
GRIDFORMAT
  1
GRIDFORMAT_BEGIN
 90
        0
 91
        1
 62
     0
 92
       -2
340
14
 93
        0
 40
1.125
309
GRIDFORMAT_END
 95
       32
302
GRIDFORMAT
  1
GRIDFORMAT_BEGIN
 90
        0
 91
        1
 62
     0
 92
       -2
340
14
 93
        0
 40
1.125
309
GRIDFORMAT_END
309
TABLEFORMAT_END
  1
CELLSTYLE_BEGIN
 90
        3
 91
        2
300
_DATA
309
CELLSTYLE_END
  0
ENDSEC
  0
SECTION
  2
ACDSDATA
 70
     2
 71
     8
  0
ACDSSCHEMA
 90
        0
  1
AcDb_Thumbnail_Schema
  2
AcDbDs::ID
280
    10
 91
        8
  2
Thumbnail_Data
280
    15
 91
        0
101
ACDSRECORD
 95
        0
 90
        1
  2
AcDbDs::TreatedAsObjectData
280
     1
291
     1
101
ACDSRECORD
 95
        0
 90
        2
  2
AcDbDs::Legacy
280
     1
291
     1
101
ACDSRECORD
  1
AcDbDs::ID
 90
        3
  2
AcDs:Indexable
280
     1
291
     1
101
ACDSRECORD
  1
AcDbDs::ID
 90
        4
  2
AcDbDs::HandleAttribute
280
     7
282
     1
  0
ACDSSCHEMA
 90
        1
  1
AcDbDs::TreatedAsObjectDataSchema
  2
AcDbDs::TreatedAsObjectData
280
     1
 91
        0
  0
ACDSSCHEMA
 90
        2
  1
AcDbDs::LegacySchema
  2
AcDbDs::Legacy
280
     1
 91
        0
  0
ACDSSCHEMA
 90
        3
  1
AcDbDs::IndexedPropertySchema
  2
AcDs:Indexable
280
     1
 91
        0
  0
ACDSSCHEMA
 90
        4
  1
AcDbDs::HandleAttributeSchema
  2
AcDbDs::HandleAttribute
280
     7
 91
        1
284
     1
  0
ACDSRECORD
 90
        0
  2
AcDbDs::ID
280
    10
320
22
  2
Thumbnail_Data
280
    15
 94
     1437
310
89504E470D0A1A0A0000000D49484452000001000000006408030000005EBE1EAC00000300504C5445212830000000C8C8C80000000000000000000000000000000000000000000000000000330000660000990000CC0000FF0033000033330033660033990033CC0033FF0066000066330066660066990066CC0066FF0099
310
000099330099660099990099CC0099FF00CC0000CC3300CC6600CC9900CCCC00CCFF00FF0000FF3300FF6600FF9900FFCC00FFFF3300003300333300663300993300CC3300FF3333003333333333663333993333CC3333FF3366003366333366663366993366CC3366FF3399003399333399663399993399CC3399FF33CC00
310
33CC3333CC6633CC9933CCCC33CCFF33FF0033FF3333FF6633FF9933FFCC33FFFF6600006600336600666600996600CC6600FF6633006633336633666633996633CC6633FF6666006666336666666666996666CC6666FF6699006699336699666699996699CC6699FF66CC0066CC3366CC6666CC9966CCCC66CCFF66FF0066
310
FF3366FF6666FF9966FFCC66FFFF9900009900339900669900999900CC9900FF9933009933339933669933999933CC9933FF9966009966339966669966999966CC9966FF9999009999339999669999999999CC9999FF99CC0099CC3399CC6699CC9999CCCC99CCFF99FF0099FF3399FF6699FF9999FFCC99FFFFCC0000CC00
310
33CC0066CC0099CC00CCCC00FFCC3300CC3333CC3366CC3399CC33CCCC33FFCC6600CC6633CC6666CC6699CC66CCCC66FFCC9900CC9933CC9966CC9999CC99CCCC99FFCCCC00CCCC33CCCC66CCCC99CCCCCCCCCCFFCCFF00CCFF33CCFF66CCFF99CCFFCCCCFFFFFF0000FF0033FF0066FF0099FF00CCFF00FFFF3300FF3333
310
FF3366FF3399FF33CCFF33FFFF6600FF6633FF6666FF6699FF66CCFF66FFFF9900FF9933FF9966FF9999FF99CCFF99FFFFCC00FFCC33FFCC66FFCC99FFCCCCFFCCFFFFFF00FFFF33FFFF66FFFF99FFFFCCFFFFFF0000000D0D0D1A1A1A2828283535354343435050505D5D5D6B6B6B787878868686939393A1A1A1AEAEAEBB
310
BBBBC9C9C9D6D6D6E4E4E4F1F1F1FFFFFF000000000000000000000000000000000000000000000000000000000000B21171F60000016E4944415478DAED9B5BAEC2300C05BDFF65B207FF832E3424B9A622B448D86706215EA24A26B693A660060000000000000000EFE1DF228D8064C74500021080806F3634AEE21FD4F4
310
A402FC9580E5892DAD8070D08504D80B01CB69800015012D35A6249110707BCBFFEEEDA99600EF467F8C06A108E83B2E160143F2FBCE91CA46C0A3DBF72AF0FF530101DBE087CB240D01F61CFE4202B6D07E2F025A052C25C09752C0EA0930044402C652E735053C127B5ED706BB045505EC6E88D41760F1758DE84CB0A880
310
B56F22E09919081016B06D8A8809F03E0282DD92FA1160EE9D80B41170A8A5154E878FB6D48395736201E7FDC4030169050C8F08104E014D01DDE4AE2AE08CF0474072014604680BF8E9C32200010838BDA59711042060DADFF0FBCDE79EF9FCA29680A3FF901113907A4BECD6E9D691B906F84E8E7B5B3387970E6B085029
310
82F2029806A369D0FB397079A3A8E82CA02E801A80808A02C4FF3D0E00000000000000000029B9024C304ABA43D9B6B20000000049454E44AE426082904F490303203000089032CB980045FEE91A005D00090C50CC819E017A4762CD53E2801130D47DA39360F334298FFCD1B7E48C02E4F7A4DA65502072F76B628F05C15A
310
22840000D51B91403D05001200607E4D2EBF32989FB1C400A876408BA7B21208A07D4528C232F0FD8D0501CE05E0E147231E00F4666023C0180172A540904910CD7FB14CB9180108400002840190E5FC1F0920FC32181DA0A188BB1BB4D77F02E0FBAD118043202E8095EC870004200027C16B22C05E210001084000021080
310
00042000018E959F5C08400002108000D1007E01F41F8EE01F82B8B10000000049454E44AE426082
  0
ENDSEC
  0
EOF
