  0
SECTION
  2
HEADER
  9
$ACADVER
  1
AC1027
  9
$ACADMAINTVER
 70
    81
  9
$DWGCODEPAGE
  3
ANSI_1250
  9
$LASTSAVEDBY
  1
MARCIN
  9
$REQUIREDVERSIONS
160
                 0
  9
$INSBASE
 10
0.0
 20
0.0
 30
0.0
  9
$EXTMIN
 10
2661.215622445196
 20
1282.411093126013
 30
-137.695290726353
  9
$EXTMAX
 10
4630.236199213437
 20
2135.635305322746
 30
81.6978115657057
  9
$LIMMIN
 10
0.0
 20
0.0
  9
$LIMMAX
 10
420.0
 20
297.0
  9
$ORTHOMODE
 70
     0
  9
$REGENMODE
 70
     1
  9
$FILLMODE
 70
     1
  9
$QTEXTMODE
 70
     0
  9
$MIRRTEXT
 70
     0
  9
$LTSCALE
 40
1.0
  9
$ATTMODE
 70
     1
  9
$TEXTSIZE
 40
2.5
  9
$TRACEWID
 40
1.0
  9
$TEXTSTYLE
  7
Standard
  9
$CLAYER
  8
0
  9
$CELTYPE
  6
ByLayer
  9
$CECOLOR
 62
   256
  9
$CELTSCALE
 40
1.0
  9
$DISPSILH
 70
     0
  9
$DIMSCALE
 40
1.0
  9
$DIMASZ
 40
3.5
  9
$DIMEXO
 40
1.0
  9
$DIMDLI
 40
10.0
  9
$DIMRND
 40
0.0
  9
$DIMDLE
 40
0.0
  9
$DIMEXE
 40
1.0
  9
$DIMTP
 40
0.1
  9
$DIMTM
 40
0.1
  9
$DIMTXT
 40
3.5
  9
$DIMCEN
 40
0.0
  9
$DIMTSZ
 40
0.0
  9
$DIMTOL
 70
     0
  9
$DIMLIM
 70
     0
  9
$DIMTIH
 70
     0
  9
$DIMTOH
 70
     0
  9
$DIMSE1
 70
     0
  9
$DIMSE2
 70
     0
  9
$DIMTAD
 70
     1
  9
$DIMZIN
 70
     8
  9
$DIMBLK
  1

  9
$DIMASO
 70
     1
  9
$DIMSHO
 70
     1
  9
$DIMPOST
  1

  9
$DIMAPOST
  1
"
  9
$DIMALT
 70
     0
  9
$DIMALTD
 70
     2
  9
$DIMALTF
 40
0.0393701
  9
$DIMLFAC
 40
1.0
  9
$DIMTOFL
 70
     1
  9
$DIMTVP
 40
0.0
  9
$DIMTIX
 70
     0
  9
$DIMSOXD
 70
     0
  9
$DIMSAH
 70
     0
  9
$DIMBLK1
  1

  9
$DIMBLK2
  1

  9
$DIMSTYLE
  2
AM_ISO
  9
$DIMCLRD
 70
   256
  9
$DIMCLRE
 70
   256
  9
$DIMCLRT
 70
     2
  9
$DIMTFAC
 40
0.71
  9
$DIMGAP
 40
1.5
  9
$DIMJUST
 70
     0
  9
$DIMSD1
 70
     0
  9
$DIMSD2
 70
     0
  9
$DIMTOLJ
 70
     0
  9
$DIMTZIN
 70
     8
  9
$DIMALTZ
 70
     0
  9
$DIMALTTZ
 70
     0
  9
$DIMUPT
 70
     0
  9
$DIMDEC
 70
     2
  9
$DIMTDEC
 70
     3
  9
$DIMALTU
 70
     2
  9
$DIMALTTD
 70
     4
  9
$DIMTXSTY
  7
Standard
  9
$DIMAUNIT
 70
     0
  9
$DIMADEC
 70
     0
  9
$DIMALTRND
 40
0.0
  9
$DIMAZIN
 70
     2
  9
$DIMDSEP
 70
    46
  9
$DIMATFIT
 70
     3
  9
$DIMFRAC
 70
     0
  9
$DIMLDRBLK
  1

  9
$DIMLUNIT
 70
     2
  9
$DIMLWD
 70
    -1
  9
$DIMLWE
 70
    -1
  9
$DIMTMOVE
 70
     0
  9
$DIMFXL
 40
1.0
  9
$DIMFXLON
 70
     0
  9
$DIMJOGANG
 40
0.7853981633974483
  9
$DIMTFILL
 70
     0
  9
$DIMTFILLCLR
 70
     0
  9
$DIMARCSYM
 70
     1
  9
$DIMLTYPE
  6
ByBlock
  9
$DIMLTEX1
  6
ByBlock
  9
$DIMLTEX2
  6
ByBlock
  9
$DIMTXTDIRECTION
 70
     0
  9
$LUNITS
 70
     2
  9
$LUPREC
 70
     2
  9
$SKETCHINC
 40
1.0
  9
$FILLETRAD
 40
0.0
  9
$AUNITS
 70
     0
  9
$AUPREC
 70
     0
  9
$MENU
  1
.
  9
$ELEVATION
 40
0.0
  9
$PELEVATION
 40
0.0
  9
$THICKNESS
 40
0.0
  9
$LIMCHECK
 70
     0
  9
$CHAMFERA
 40
0.0
  9
$CHAMFERB
 40
0.0
  9
$CHAMFERC
 40
0.0
  9
$CHAMFERD
 40
0.0
  9
$SKPOLY
 70
     0
  9
$TDCREATE
 40
2457775.861053194
  9
$TDUCREATE
 40
2457775.819386528
  9
$TDUPDATE
 40
2457810.561000093
  9
$TDUUPDATE
 40
2457810.519333426
  9
$TDINDWG
 40
0.0258310648
  9
$TDUSRTIMER
 40
0.0258308912
  9
$USRTIMER
 70
     1
  9
$ANGBASE
 50
0.0
  9
$ANGDIR
 70
     0
  9
$PDMODE
 70
     0
  9
$PDSIZE
 40
0.0
  9
$PLINEWID
 40
0.0
  9
$SPLFRAME
 70
     0
  9
$SPLINETYPE
 70
     6
  9
$SPLINESEGS
 70
     8
  9
$HANDSEED
  5
7F4
  9
$SURFTAB1
 70
     6
  9
$SURFTAB2
 70
     6
  9
$SURFTYPE
 70
     6
  9
$SURFU
 70
     6
  9
$SURFV
 70
     6
  9
$UCSBASE
  2

  9
$UCSNAME
  2

  9
$UCSORG
 10
0.0
 20
0.0
 30
0.0
  9
$UCSXDIR
 10
1.0
 20
0.0
 30
0.0
  9
$UCSYDIR
 10
0.0
 20
1.0
 30
0.0
  9
$UCSORTHOREF
  2

  9
$UCSORTHOVIEW
 70
     0
  9
$UCSORGTOP
 10
0.0
 20
0.0
 30
0.0
  9
$UCSORGBOTTOM
 10
0.0
 20
0.0
 30
0.0
  9
$UCSORGLEFT
 10
0.0
 20
0.0
 30
0.0
  9
$UCSORGRIGHT
 10
0.0
 20
0.0
 30
0.0
  9
$UCSORGFRONT
 10
0.0
 20
0.0
 30
0.0
  9
$UCSORGBACK
 10
0.0
 20
0.0
 30
0.0
  9
$PUCSBASE
  2

  9
$PUCSNAME
  2

  9
$PUCSORG
 10
0.0
 20
0.0
 30
0.0
  9
$PUCSXDIR
 10
1.0
 20
0.0
 30
0.0
  9
$PUCSYDIR
 10
0.0
 20
1.0
 30
0.0
  9
$PUCSORTHOREF
  2

  9
$PUCSORTHOVIEW
 70
     0
  9
$PUCSORGTOP
 10
0.0
 20
0.0
 30
0.0
  9
$PUCSORGBOTTOM
 10
0.0
 20
0.0
 30
0.0
  9
$PUCSORGLEFT
 10
0.0
 20
0.0
 30
0.0
  9
$PUCSORGRIGHT
 10
0.0
 20
0.0
 30
0.0
  9
$PUCSORGFRONT
 10
0.0
 20
0.0
 30
0.0
  9
$PUCSORGBACK
 10
0.0
 20
0.0
 30
0.0
  9
$USERI1
 70
     0
  9
$USERI2
 70
     0
  9
$USERI3
 70
     0
  9
$USERI4
 70
     0
  9
$USERI5
 70
     0
  9
$USERR1
 40
0.0
  9
$USERR2
 40
0.0
  9
$USERR3
 40
0.0
  9
$USERR4
 40
0.0
  9
$USERR5
 40
0.0
  9
$WORLDVIEW
 70
     1
  9
$SHADEDGE
 70
     3
  9
$SHADEDIF
 70
    70
  9
$TILEMODE
 70
     1
  9
$MAXACTVP
 70
    64
  9
$PINSBASE
 10
0.0
 20
0.0
 30
0.0
  9
$PLIMCHECK
 70
     0
  9
$PEXTMIN
 10
0.0
 20
0.0
 30
0.0
  9
$PEXTMAX
 10
0.0
 20
0.0
 30
0.0
  9
$PLIMMIN
 10
0.0
 20
0.0
  9
$PLIMMAX
 10
12.0
 20
9.0
  9
$UNITMODE
 70
     0
  9
$VISRETAIN
 70
     1
  9
$PLINEGEN
 70
     0
  9
$PSLTSCALE
 70
     1
  9
$TREEDEPTH
 70
  3020
  9
$CMLSTYLE
  2
Standard
  9
$CMLJUST
 70
     0
  9
$CMLSCALE
 40
20.0
  9
$PROXYGRAPHICS
 70
     1
  9
$MEASUREMENT
 70
     1
  9
$CELWEIGHT
370
    -1
  9
$ENDCAPS
280
     0
  9
$JOINSTYLE
280
     0
  9
$LWDISPLAY
290
     0
  9
$INSUNITS
 70
     4
  9
$HYPERLINKBASE
  1

  9
$STYLESHEET
  1

  9
$XEDIT
290
     1
  9
$CEPSNTYPE
380
     0
  9
$PSTYLEMODE
290
     1
  9
$FINGERPRINTGUID
  2
{BC30F9C6-33AA-4316-A195-C873604D6627}
  9
$VERSIONGUID
  2
{956DF4AD-4A23-4EF4-ACED-7BEEF82AACFA}
  9
$EXTNAMES
290
     1
  9
$PSVPSCALE
 40
0.0
  9
$OLESTARTUP
290
     0
  9
$SORTENTS
280
   127
  9
$INDEXCTL
280
     0
  9
$HIDETEXT
280
     1
  9
$XCLIPFRAME
280
     2
  9
$HALOGAP
280
     0
  9
$OBSCOLOR
 70
   257
  9
$OBSLTYPE
280
     0
  9
$INTERSECTIONDISPLAY
280
     0
  9
$INTERSECTIONCOLOR
 70
   257
  9
$DIMASSOC
280
     2
  9
$PROJECTNAME
  1

  9
$CAMERADISPLAY
290
     0
  9
$LENSLENGTH
 40
50.0
  9
$CAMERAHEIGHT
 40
0.0
  9
$STEPSPERSEC
 40
2.0
  9
$STEPSIZE
 40
6.0
  9
$3DDWFPREC
 40
2.0
  9
$PSOLWIDTH
 40
5.0
  9
$PSOLHEIGHT
 40
80.0
  9
$LOFTANG1
 40
1.570796326794896
  9
$LOFTANG2
 40
1.570796326794896
  9
$LOFTMAG1
 40
0.0
  9
$LOFTMAG2
 40
0.0
  9
$LOFTPARAM
 70
     7
  9
$LOFTNORMALS
280
     1
  9
$LATITUDE
 40
37.795
  9
$LONGITUDE
 40
-122.394
  9
$NORTHDIRECTION
 40
0.0
  9
$TIMEZONE
 70
 -8000
  9
$LIGHTGLYPHDISPLAY
280
     1
  9
$TILEMODELIGHTSYNCH
280
     1
  9
$CMATERIAL
347
EC
  9
$SOLIDHIST
280
     0
  9
$SHOWHIST
280
     1
  9
$DWFFRAME
280
     2
  9
$DGNFRAME
280
     0
  9
$REALWORLDSCALE
290
     1
  9
$INTERFERECOLOR
 62
     1
  9
$INTERFEREOBJVS
345
F9
  9
$INTERFEREVPVS
346
F6
  9
$CSHADOW
280
     0
  9
$SHADOWPLANELOCATION
 40
0.0
  0
ENDSEC
  0
SECTION
  2
CLASSES
  0
CLASS
  1
ACDBDICTIONARYWDFLT
  2
AcDbDictionaryWithDefault
  3
ObjectDBX Classes
 90
        0
 91
        1
280
     0
281
     0
  0
CLASS
  1
DICTIONARYVAR
  2
AcDbDictionaryVar
  3
ObjectDBX Classes
 90
        0
 91
        9
280
     0
281
     0
  0
CLASS
  1
TABLESTYLE
  2
AcDbTableStyle
  3
ObjectDBX Classes
 90
     4095
 91
        1
280
     0
281
     0
  0
CLASS
  1
MATERIAL
  2
AcDbMaterial
  3
ObjectDBX Classes
 90
     1153
 91
        3
280
     0
281
     0
  0
CLASS
  1
VISUALSTYLE
  2
AcDbVisualStyle
  3
ObjectDBX Classes
 90
     4095
 91
       24
280
     0
281
     0
  0
CLASS
  1
SCALE
  2
AcDbScale
  3
ObjectDBX Classes
 90
     1153
 91
       17
280
     0
281
     0
  0
CLASS
  1
MLEADERSTYLE
  2
AcDbMLeaderStyle
  3
ACDB_MLEADERSTYLE_CLASS
 90
     4095
 91
        2
280
     0
281
     0
  0
CLASS
  1
CELLSTYLEMAP
  2
AcDbCellStyleMap
  3
ObjectDBX Classes
 90
     1152
 91
        2
280
     0
281
     0
  0
CLASS
  1
EXACXREFPANELOBJECT
  2
ExAcXREFPanelObject
  3
EXAC_ESW
 90
     1025
 91
        0
280
     0
281
     0
  0
CLASS
  1
NPOCOLLECTION
  2
AcDbImpNonPersistentObjectsCollection
  3
ObjectDBX Classes
 90
     1153
 91
        0
280
     0
281
     0
  0
CLASS
  1
LAYER_INDEX
  2
AcDbLayerIndex
  3
ObjectDBX Classes
 90
        0
 91
        0
280
     0
281
     0
  0
CLASS
  1
SPATIAL_INDEX
  2
AcDbSpatialIndex
  3
ObjectDBX Classes
 90
        0
 91
        0
280
     0
281
     0
  0
CLASS
  1
IDBUFFER
  2
AcDbIdBuffer
  3
ObjectDBX Classes
 90
        0
 91
        0
280
     0
281
     0
  0
CLASS
  1
ACDBSECTIONVIEWSTYLE
  2
AcDbSectionViewStyle
  3
ObjectDBX Classes
 90
     1025
 91
        3
280
     0
281
     0
  0
CLASS
  1
ACDBDETAILVIEWSTYLE
  2
AcDbDetailViewStyle
  3
ObjectDBX Classes
 90
     1025
 91
        3
280
     0
281
     0
  0
CLASS
  1
ACME_DOCUMENT
  2
AcMeDbDoc
  3
AcMeServices
 90
     1024
 91
        1
280
     0
281
     0
  0
CLASS
  1
AMGSETTINGSOBJ
  2
AmgSettingsObj
  3
"AcadM|Product Description: AutoCAD Mechanical|Company: Autodesk, Inc."
 90
     1024
 91
        2
280
     0
281
     0
  0
CLASS
  1
ACMESCOPE
  2
AcMeScope
  3
AcMeServices
 90
     1024
 91
        1
280
     0
281
     0
  0
CLASS
  1
ACMECOMMANDHISTORY
  2
AcMeCommandHistory
  3
AcMeServices
 90
     1024
 91
        1
280
     0
281
     0
  0
CLASS
  1
ACIMSYSVARMAN
  2
AcImSysVarManager
  3
AcMeServices
 90
     1024
 91
        3
280
     0
281
     0
  0
CLASS
  1
ACIMINTSYSVAR
  2
AcImIntSysVar
  3
AcMeServices
 90
     1024
 91
        2
280
     0
281
     0
  0
CLASS
  1
ACMESTATEMGR
  2
AcMeStateMgr
  3
AcMeServices
 90
     1024
 91
        1
280
     0
281
     0
  0
CLASS
  1
ACDBENTITYCACHE
  2
AcMeEntityCache
  3
AcMeServices
 90
     1024
 91
        1
280
     0
281
     0
  0
CLASS
  1
ACGREFMASTER
  2
AcGrefMaster
  3
AcAttribServices
 90
     1024
 91
        1
280
     0
281
     0
  0
CLASS
  1
ACME_DATABASE
  2
AcMeDbDatabase
  3
AcMeServices
 90
     1024
 91
        2
280
     0
281
     0
  0
CLASS
  1
ACRFINSADJUSTERMGR
  2
AcRfInsAdjusterMgr
  3
AcMeServices
 90
     1024
 91
        1
280
     0
281
     0
  0
CLASS
  1
ACGREFACADMASTER
  2
AcGrefacadMaster
  3
AcGrefServices
 90
     1024
 91
        1
280
     0
281
     0
  0
CLASS
  1
AMDTMENUSTATEMGR
  2
AmdtMenuStateMgr
  3
McadcomServices
 90
     1024
 91
        1
280
     0
281
     0
  0
CLASS
  1
AMDTMCOMMENUSTATE
  2
AmdtMcomMenuState
  3
McadcomServices
 90
     1024
 91
        1
280
     0
281
     0
  0
CLASS
  1
AMIMASTER
  2
AmiMaster
  3
AmiServices
 90
     1024
 91
        1
280
     0
281
     0
  0
CLASS
  1
MAPIAMMOUDLE
  2
MApiAmModule
  3
MApiAmServices
 90
     1024
 91
        1
280
     0
281
     0
  0
CLASS
  1
ACIMSTRSYSVAR
  2
AcImStrSysVar
  3
AcMeServices
 90
     1024
 91
        5
280
     0
281
     0
  0
CLASS
  1
AMDTAMMENUSTATE
  2
AmdtAmMenuState
  3
DesignerAssemblies
 90
     1024
 91
        1
280
     0
281
     0
  0
CLASS
  1
ACAMPROJECT
  2
AcAmProject
  3
DesignerAssemblies
 90
     1024
 91
        1
280
     0
281
     0
  0
CLASS
  1
ACAMGRCOMPDEF
  2
AcAmGrCompDef
  3
DesignerAssemblies
 90
     1024
 91
        1
280
     0
281
     0
  0
CLASS
  1
ACAMCOMPDEF
  2
AcAmCompDef
  3
DesignerAssemblies
 90
     1024
 91
        1
280
     0
281
     0
  0
CLASS
  1
ACAMCOMPDEFMGR
  2
AcAmCompDefMgr
  3
DesignerAssemblies
 90
     1024
 91
        1
280
     0
281
     0
  0
CLASS
  1
AMCONTEXTMGR
  2
AcAmContextMgr
  3
DesignerAssemblies
 90
     1024
 91
        1
280
     0
281
     0
  0
CLASS
  1
ACAMCONTEXTMODELER
  2
AcAmContextModeler
  3
DesignerAssemblies
 90
     1024
 91
        1
280
     0
281
     0
  0
CLASS
  1
ACMDATADICTIONARY
  2
AcmDataDictionary
  3
"AcmSymBB|Product Description: AutoCAD Mechanical|Company: Autodesk, Inc."
 90
     1024
 91
        1
280
     0
281
     0
  0
CLASS
  1
ACMSTANDARDISO
  2
AcmStandardISO
  3
"Amdt_StdImp|Product Description: AutoCAD Mechanical|Company: Autodesk, Inc."
 90
     1024
 91
        1
280
     0
281
     0
  0
CLASS
  1
AMDTEDGESTANDARDISO13715
  2
AmdtEdgeStdISO13715
  3
"Amdt_StdImp|Product Description: AutoCAD Mechanical|Company: Autodesk, Inc."
 90
     1024
 91
        1
280
     0
281
     0
  0
CLASS
  1
ACMSURFSTANDARDISO2002
  2
AcmSurfTextStdISO2002
  3
"Amdt_StdImp|Product Description: AutoCAD Mechanical|Company: Autodesk, Inc."
 90
     1024
 91
        1
280
     0
281
     0
  0
CLASS
  1
ACMFCFSTANDARDISO2012
  2
AcmFCFStdISO2012
  3
"Amdt_StdImp|Product Description: AutoCAD Mechanical|Company: Autodesk, Inc."
 90
     1024
 91
        1
280
     0
281
     0
  0
CLASS
  1
ACMWELDSTANDARDISO
  2
AcmWeldingStdISO
  3
"Amdt_StdImp|Product Description: AutoCAD Mechanical|Company: Autodesk, Inc."
 90
     1024
 91
        1
280
     0
281
     0
  0
CLASS
  1
ACMIDSTANDARDISO2012
  2
AcmIdStdISO2012
  3
"Amdt_StdImp|Product Description: AutoCAD Mechanical|Company: Autodesk, Inc."
 90
     1024
 91
        1
280
     0
281
     0
  0
CLASS
  1
ACMDATUMSTANDARDISO2012
  2
AcmDatumStdISO2012
  3
"Amdt_StdImp|Product Description: AutoCAD Mechanical|Company: Autodesk, Inc."
 90
     1024
 91
        1
280
     0
281
     0
  0
CLASS
  1
ACMBOMSTANDARDISO
  2
AcmBOMStdISO
  3
"Amdt_StdImp|Product Description: AutoCAD Mechanical|Company: Autodesk, Inc."
 90
     1024
 91
        1
280
     0
281
     0
  0
CLASS
  1
ACMDETAILSTANDARDISO
  2
AmdtDetailSymStdISO
  3
"Amdt_StdImp|Product Description: AutoCAD Mechanical|Company: Autodesk, Inc."
 90
     1024
 91
        1
280
     0
281
     0
  0
CLASS
  1
ACMSECTIONSTANDARDISO2001
  2
AmdtSectionSymStdISO2001
  3
"Amdt_StdImp|Product Description: AutoCAD Mechanical|Company: Autodesk, Inc."
 90
     1024
 91
        1
280
     0
281
     0
  0
CLASS
  1
ACMCENTERLINESTANDARDISO
  2
AmdtCenterLineStdISO
  3
"Amdt_StdImp|Product Description: AutoCAD Mechanical|Company: Autodesk, Inc."
 90
     1024
 91
        1
280
     0
281
     0
  0
CLASS
  1
ACMTHREADLINESTANDARDISO
  2
AmdtThreadLineStdISO
  3
"Amdt_StdImp|Product Description: AutoCAD Mechanical|Company: Autodesk, Inc."
 90
     1024
 91
        1
280
     0
281
     0
  0
CLASS
  1
ACMNOTESTANDARDISO
  2
AmdtNoteStdISO
  3
"Amdt_StdImp|Product Description: AutoCAD Mechanical|Company: Autodesk, Inc."
 90
     1024
 91
        1
280
     0
281
     0
  0
CLASS
  1
ACMTAPERSTANDARDISO
  2
AcmTaperStdISO
  3
"Amdt_StdImp|Product Description: AutoCAD Mechanical|Company: Autodesk, Inc."
 90
     1024
 91
        1
280
     0
281
     0
  0
CLASS
  1
ACMANOOTATIONVIEWSTANDARDISO
  2
AmdtAnViewStdISO
  3
"Amdt_StdImp|Product Description: AutoCAD Mechanical|Company: Autodesk, Inc."
 90
     1024
 91
        1
280
     0
281
     0
  0
CLASS
  1
ACAMGLAYSTD
  2
AcAmgLayStd
  3
"AmgLay|Product Description: AutoCAD Mechanical|Company: Autodesk, Inc."
 90
     1024
 91
        1
280
     0
281
     0
  0
CLASS
  1
ACAMGDIMSTD
  2
AcAmgDimStd
  3
"AmgDim|Product Description: AutoCAD Mechanical|Company: Autodesk, Inc."
 90
     1024
 91
        1
280
     0
281
     0
  0
CLASS
  1
AMGOBJPROPCFG
  2
AmgObjPropCfg
  3
"AmgLay|Product Description: AutoCAD Mechanical|Company: Autodesk, Inc."
 90
     1024
 91
        1
280
     0
281
     0
  0
CLASS
  1
ACAMGHOLECHARTSTDISO
  2
AcAmgHoleChartStdISO
  3
AmgDim|Product Description: AutoCAD Mechanical|Company: Autodesk, Inc.
 90
     1024
 91
        1
280
     0
281
     0
  0
CLASS
  1
ACAMGTITLESTD
  2
AcAmgTitleStd
  3
"AmgTitle|Product Description: AutoCAD Mechanical|Company: Autodesk, Inc."
 90
     1024
 91
        1
280
     0
281
     0
  0
CLASS
  1
ACMSECTIONSTANDARDCUSTOM
  2
AmdtSectionSymStdCustom
  3
"Amdt_StdImp|Product Description: AutoCAD Mechanical|Company: Autodesk, Inc."
 90
     1024
 91
        2
280
     0
281
     0
  0
CLASS
  1
ACMDETAILTANDARDCUSTOM
  2
AmdtDetailSymStdCustom
  3
"Amdt_StdImp|Product Description: AutoCAD Mechanical|Company: Autodesk, Inc."
 90
     1024
 91
        2
280
     0
281
     0
  0
CLASS
  1
FIELD
  2
AcDbField
  3
ObjectDBX Classes
 90
     1152
 91
        3
280
     0
281
     0
  0
CLASS
  1
FIELDLIST
  2
AcDbFieldList
  3
ObjectDBX Classes
 90
     1152
 91
        1
280
     0
281
     0
  0
CLASS
  1
AMDTNOTETEMPLATEDB
  2
AmdtNoteTemplateDB
  3
AcmSymBB|Product Description: AutoCAD Mechanical|Company: Autodesk, Inc.
 90
     1024
 91
        7
280
     0
281
     0
  0
CLASS
  1
ACAMGRCOMPDEFSET
  2
AcAmGrCompDefSet
  3
DesignerAssemblies
 90
     1024
 91
        1
280
     0
281
     0
  0
CLASS
  1
AMDTBROWSERDBTAB
  2
AmdtBrowserDbTab
  3
McadcomServices
 90
     1024
 91
        1
280
     0
281
     0
  0
CLASS
  1
CBROWSERAPPOBJECT
  2
CBrowserAppObject
  3
McadcomServices
 90
     1024
 91
        2
280
     0
281
     0
  0
CLASS
  1
DM_PLACEHOLDER
  2
AcDmSelsetPlaceholder
  3
McadcomServices
 90
     1024
 91
        1
280
     0
281
     0
  0
CLASS
  1
CAMSSTRUCTBTNSTATE
  2
StructBtnState
  3
DesignerAssemblies
 90
     1024
 91
        0
280
     0
281
     0
  0
CLASS
  1
DIMASSOC
  2
AcDbDimAssoc
  3
"AcDbDimAssoc|Product Desc:     AcDim ARX App For Dimension|Company:          Autodesk, Inc.|WEB Address:      www.autodesk.com"
 90
        0
 91
        0
280
     0
281
     0
  0
CLASS
  1
SORTENTSTABLE
  2
AcDbSortentsTable
  3
ObjectDBX Classes
 90
        0
 91
        2
280
     0
281
     0
  0
CLASS
  1
ACAMGFILTERDAT
  2
AcAmgFilterDat
  3
"AcadM|Product Description: AutoCAD Mechanical|Company: Autodesk, Inc."
 90
     1024
 91
        0
280
     0
281
     0
  0
ENDSEC
  0
SECTION
  2
TABLES
  0
TABLE
  2
VPORT
  5
8
330
0
100
AcDbSymbolTable
 70
     1
  0
VPORT
  5
EA
330
8
100
AcDbSymbolTableRecord
100
AcDbViewportTableRecord
  2
*Active
 70
     0
 10
0.0
 20
0.0
 11
1.0
 21
1.0
 12
3840.547004236121
 22
1535.345378542767
 13
0.0
 23
0.0
 14
10.0
 24
10.0
 15
10.0
 25
10.0
 16
0.0
 26
0.0
 36
1.0
 17
0.0
 27
0.0
 37
0.0
 40
1786.830678616807
 41
2.049523809523809
 42
50.0
 43
0.0
 44
0.0
 50
0.0
 51
0.0
 71
     0
 72
  1000
 73
     1
 74
     3
 75
     0
 76
     1
 77
     0
 78
     0
281
     0
 65
     0
110
0.0
120
0.0
130
0.0
111
1.0
121
0.0
131
0.0
112
0.0
122
1.0
132
0.0
 79
     0
146
0.0
348
F5
 60
     3
 61
     5
292
     1
282
     1
141
0.0
142
0.0
 63
   250
421
  3355443
1001
ACAD_NAV_VCDISPLAY
1070
     3
  0
ENDTAB
  0
TABLE
  2
LTYPE
  5
5
330
0
100
AcDbSymbolTable
 70
    14
  0
LTYPE
  5
14
330
5
100
AcDbSymbolTableRecord
100
AcDbLinetypeTableRecord
  2
ByBlock
 70
     0
  3

 72
    65
 73
     0
 40
0.0
  0
LTYPE
  5
15
330
5
100
AcDbSymbolTableRecord
100
AcDbLinetypeTableRecord
  2
ByLayer
 70
     0
  3

 72
    65
 73
     0
 40
0.0
  0
LTYPE
  5
16
330
5
100
AcDbSymbolTableRecord
100
AcDbLinetypeTableRecord
  2
Continuous
 70
     0
  3
Solid line
 72
    65
 73
     0
 40
0.0
  0
LTYPE
  5
25D
330
5
100
AcDbSymbolTableRecord
100
AcDbLinetypeTableRecord
  2
HIDDEN
 70
     0
  3
Hidden __ __ __ __ __ __ __ __ __ __ __ __ __ __
 72
    65
 73
     2
 40
9.525
 49
6.349999999999997
 74
     0
 49
-3.174999999999998
 74
     0
  0
LTYPE
  5
25E
330
5
100
AcDbSymbolTableRecord
100
AcDbLinetypeTableRecord
  2
PHANTOM2
 70
     0
  3
Phantom (.5x) ___ _ _ ___ _ _ ___ _ _ ___ _ _
 72
    65
 73
     6
 40
31.75
 49
15.875
 74
     0
 49
-3.174999999999998
 74
     0
 49
3.174999999999998
 74
     0
 49
-3.174999999999998
 74
     0
 49
3.174999999999998
 74
     0
 49
-3.174999999999998
 74
     0
  0
LTYPE
  5
25F
330
5
100
AcDbSymbolTableRecord
100
AcDbLinetypeTableRecord
  2
CENTER
 70
     0
  3
Center ____ _ ____ _ ____ _ ____ _ ____ _ ____
 72
    65
 73
     4
 40
50.8
 49
31.75
 74
     0
 49
-6.349999999999997
 74
     0
 49
6.349999999999997
 74
     0
 49
-6.349999999999997
 74
     0
  0
LTYPE
  5
294
330
5
100
AcDbSymbolTableRecord
100
AcDbLinetypeTableRecord
  2
AM_ISO02W050
 70
     0
  3
__ __ __ __ __ __ __ __ __ __ __ __ __ __ __
 72
    65
 73
     2
 40
7.5
 49
6.0
 74
     0
 49
-1.5
 74
     0
  0
LTYPE
  5
295
330
5
100
AcDbSymbolTableRecord
100
AcDbLinetypeTableRecord
  2
AM_ISO08W050
 70
     0
  3
____ . ____ . ____ . ____ . ____ . ____ . ____
 72
    65
 73
     4
 40
18.0
 49
12.0
 74
     0
 49
-1.5
 74
     0
 49
3.0
 74
     0
 49
-1.5
 74
     0
  0
LTYPE
  5
296
330
5
100
AcDbSymbolTableRecord
100
AcDbLinetypeTableRecord
  2
AM_ISO09W050
 70
     0
  3
_____ . . _____ . . _____ . . ____ .. ____
 72
    65
 73
     6
 40
22.5
 49
12.0
 74
     0
 49
-1.5
 74
     0
 49
3.0
 74
     0
 49
-1.5
 74
     0
 49
3.0
 74
     0
 49
-1.5
 74
     0
  0
LTYPE
  5
297
330
5
100
AcDbSymbolTableRecord
100
AcDbLinetypeTableRecord
  2
Amconstr
 70
     0
  3
_______________________
 72
    65
 73
     2
 40
9999.0
 49
9999.0
 74
     0
 49
0.0
 74
     0
  0
LTYPE
  5
298
330
5
100
AcDbSymbolTableRecord
100
AcDbLinetypeTableRecord
  2
AM_ISO08W050x2
 70
     0
  3
__ . __ . __ . __ . __ . __
 72
    65
 73
     4
 40
9.0
 49
6.0
 74
     0
 49
-0.75
 74
     0
 49
1.5
 74
     0
 49
-0.75
 74
     0
  0
LTYPE
  5
299
330
5
100
AcDbSymbolTableRecord
100
AcDbLinetypeTableRecord
  2
AM_ISO02W050x2
 70
     0
  3
 _ _ _ _ _ _ _ _ _ _ _ _
 72
    65
 73
     2
 40
3.75
 49
3.0
 74
     0
 49
-0.75
 74
     0
  0
LTYPE
  5
29C
330
5
100
AcDbSymbolTableRecord
100
AcDbLinetypeTableRecord
  2
Amzigzag
 70
     0
  3
/\/-/\/-/\/-/\/-/\/-/\/
 72
    65
 73
     2
 40
11.0001
 49
0.0001
 74
     4
 75
   136
340
29B
 46
0.04
 50
0.0
 44
0.0
 45
0.0
 49
-11.0
 74
     0
  0
LTYPE
  5
2AD
330
5
100
AcDbSymbolTableRecord
100
AcDbLinetypeTableRecord
  2
ACISOWELD
 70
     0
  3
_ _ _ _ _
 72
    65
 73
     2
 40
2.0
 49
2.0
 74
     0
 49
-1.0
 74
     0
  0
LTYPE
  5
2AE
330
5
100
AcDbSymbolTableRecord
100
AcDbLinetypeTableRecord
  2
ACISOTGL
 70
     0
  3
_ _ _ _ _
 72
    65
 73
     2
 40
3.0
 49
2.0
 74
     0
 49
-1.0
 74
     0
  0
LTYPE
  5
2AF
330
5
100
AcDbSymbolTableRecord
100
AcDbLinetypeTableRecord
  2
ACISOTGB
 70
     0
  3
__ . . __ . .
 72
    65
 73
     6
 40
9.0
 49
4.0
 74
     0
 49
-1.0
 74
     0
 49
1.0
 74
     0
 49
-1.0
 74
     0
 49
1.0
 74
     0
 49
-1.0
 74
     0
  0
ENDTAB
  0
TABLE
  2
LAYER
  5
2
102
{ACAD_XDICTIONARY
360
1FF
102
}
330
0
100
AcDbSymbolTable
 70
     6
  0
LAYER
  5
10
102
{ACAD_XDICTIONARY
360
13C
102
}
330
2
100
AcDbSymbolTableRecord
100
AcDbLayerTableRecord
  2
0
 70
     0
 62
     7
  6
Continuous
370
    -3
390
F
347
EE
348
0
  0
LAYER
  5
309
330
2
100
AcDbSymbolTableRecord
100
AcDbLayerTableRecord
  2
AM_5
 70
     0
 62
     3
  6
Continuous
370
    25
390
F
347
EE
348
0
1001
AcAecLayerStandard
1000

1000

  0
LAYER
  5
30A
330
2
100
AcDbSymbolTableRecord
100
AcDbLayerTableRecord
  2
Defpoints
 70
     0
 62
     7
  6
Continuous
290
     0
370
    -3
390
F
347
EE
348
0
  0
LAYER
  5
62D
330
2
100
AcDbSymbolTableRecord
100
AcDbLayerTableRecord
  2
Model
 70
     0
 62
     7
  6
Continuous
370
    30
390
F
347
EE
348
0
1001
AcAecLayerStandard
1000

1000

1001
ACCMTRANSPARENCY
1071
        0
  0
LAYER
  5
62E
330
2
100
AcDbSymbolTableRecord
100
AcDbLayerTableRecord
  2
Wymiary
 70
     0
 62
     7
  6
Continuous
370
    -3
390
F
347
EE
348
0
1001
AcAecLayerStandard
1000

1000

1001
ACCMTRANSPARENCY
1071
        0
  0
LAYER
  5
740
330
2
100
AcDbSymbolTableRecord
100
AcDbLayerTableRecord
  2
AM_8
 70
     0
 62
     1
  6
Continuous
370
    25
390
F
347
EE
348
0
1001
AcAecLayerStandard
1000

1000

  0
ENDTAB
  0
TABLE
  2
STYLE
  5
3
330
0
100
AcDbSymbolTable
 70
     5
  0
STYLE
  5
11
330
3
100
AcDbSymbolTableRecord
100
AcDbTextStyleTableRecord
  2
Standard
 70
     0
 40
0.0
 41
1.0
 50
0.0
 71
     0
 42
2.5
  3
ISOCP.SHX
  4

  0
STYLE
  5
132
330
3
100
AcDbSymbolTableRecord
100
AcDbTextStyleTableRecord
  2
Annotative
 70
     0
 40
0.0
 41
1.0
 50
0.0
 71
     0
 42
2.5
  3
arial.ttf
  4

1001
AcadAnnotative
1000
AnnotativeData
1002
{
1070
     1
1070
     1
1002
}
1001
ACAD
1000
Arial
1071
       34
  0
STYLE
  5
29B
330
3
100
AcDbSymbolTableRecord
100
AcDbTextStyleTableRecord
  2

 70
     1
 40
0.0
 41
1.0
 50
0.0
 71
     0
 42
2.5
  3
genltshp.shx
  4

  0
STYLE
  5
2AB
330
3
100
AcDbSymbolTableRecord
100
AcDbTextStyleTableRecord
  2
ACISOTS
 70
     0
 40
0.0
 41
1.0
 50
0.0
 71
     0
 42
2.5
  3
geniso.shx
  4

  0
STYLE
  5
2AC
330
3
100
AcDbSymbolTableRecord
100
AcDbTextStyleTableRecord
  2
ACISOGDT
 70
     0
 40
0.0
 41
1.0
 50
0.0
 71
     0
 42
2.5
  3
amgdt.shx
  4

  0
ENDTAB
  0
TABLE
  2
VIEW
  5
6
330
0
100
AcDbSymbolTable
 70
     0
  0
ENDTAB
  0
TABLE
  2
UCS
  5
7
330
0
100
AcDbSymbolTable
 70
     0
  0
ENDTAB
  0
TABLE
  2
APPID
  5
9
330
0
100
AcDbSymbolTable
 70
    25
  0
APPID
  5
12
330
9
100
AcDbSymbolTableRecord
100
AcDbRegAppTableRecord
  2
ACAD
 70
     0
  0
APPID
  5
9E
330
9
100
AcDbSymbolTableRecord
100
AcDbRegAppTableRecord
  2
ACAD_PSEXT
 70
     0
  0
APPID
  5
133
330
9
100
AcDbSymbolTableRecord
100
AcDbRegAppTableRecord
  2
AcadAnnoPO
 70
     0
  0
APPID
  5
134
330
9
100
AcDbSymbolTableRecord
100
AcDbRegAppTableRecord
  2
AcadAnnotative
 70
     0
  0
APPID
  5
135
330
9
100
AcDbSymbolTableRecord
100
AcDbRegAppTableRecord
  2
ACAD_DSTYLE_DIMJAG
 70
     0
  0
APPID
  5
136
330
9
100
AcDbSymbolTableRecord
100
AcDbRegAppTableRecord
  2
ACAD_DSTYLE_DIMTALN
 70
     0
  0
APPID
  5
165
330
9
100
AcDbSymbolTableRecord
100
AcDbRegAppTableRecord
  2
ACAD_MLEADERVER
 70
     0
  0
APPID
  5
217
330
9
100
AcDbSymbolTableRecord
100
AcDbRegAppTableRecord
  2
ACAD_NAV_VCDISPLAY
 70
     0
  0
APPID
  5
256
330
9
100
AcDbSymbolTableRecord
100
AcDbRegAppTableRecord
  2
MCAD_NO_VIS
 70
     0
  0
APPID
  5
257
330
9
100
AcDbSymbolTableRecord
100
AcDbRegAppTableRecord
  2
ACAD_TEMP_GRAPHIC
 70
     0
  0
APPID
  5
264
330
9
100
AcDbSymbolTableRecord
100
AcDbRegAppTableRecord
  2
ACATTRIBSERVICES
 70
     0
  0
APPID
  5
27C
330
9
100
AcDbSymbolTableRecord
100
AcDbRegAppTableRecord
  2
DESIGNERASSEMBLIES
 70
     0
  0
APPID
  5
292
330
9
100
AcDbSymbolTableRecord
100
AcDbRegAppTableRecord
  2
ACAD_DSTYLE_DIMBREAK
 70
     0
  0
APPID
  5
30C
330
9
100
AcDbSymbolTableRecord
100
AcDbRegAppTableRecord
  2
GENIUS_GENREC_14
 70
     0
  0
APPID
  5
30D
330
9
100
AcDbSymbolTableRecord
100
AcDbRegAppTableRecord
  2
GENIUS_GENOBJ-N-REC_13
 70
     0
  0
APPID
  5
30E
330
9
100
AcDbSymbolTableRecord
100
AcDbRegAppTableRecord
  2
GENIUS_GENODEF_13
 70
     0
  0
APPID
  5
30F
330
9
100
AcDbSymbolTableRecord
100
AcDbRegAppTableRecord
  2
AcAecLayerStandard
 70
     0
  0
APPID
  5
310
330
9
100
AcDbSymbolTableRecord
100
AcDbRegAppTableRecord
  2
ACAD_DSTYLE_DIMINSPECT
 70
     0
  0
APPID
  5
311
330
9
100
AcDbSymbolTableRecord
100
AcDbRegAppTableRecord
  2
GENIUS_GENOBJ-N-FIL_13
 70
     0
  0
APPID
  5
37F
330
9
100
AcDbSymbolTableRecord
100
AcDbRegAppTableRecord
  2
ACAD_EXEMPT_FROM_CAD_STANDARDS
 70
     0
  0
APPID
  5
3BB
330
9
100
AcDbSymbolTableRecord
100
AcDbRegAppTableRecord
  2
GENIUS_GENDTOL_13
 70
     0
  0
APPID
  5
3CE
330
9
100
AcDbSymbolTableRecord
100
AcDbRegAppTableRecord
  2
AcadAnnoMonitorAlertIconDisabled
 70
     0
  0
APPID
  5
62F
330
9
100
AcDbSymbolTableRecord
100
AcDbRegAppTableRecord
  2
ACCMTRANSPARENCY
 70
     0
  0
APPID
  5
741
330
9
100
AcDbSymbolTableRecord
100
AcDbRegAppTableRecord
  2
GENIUS_GENOBJ-N-HTC_13
 70
     0
  0
APPID
  5
742
330
9
100
AcDbSymbolTableRecord
100
AcDbRegAppTableRecord
  2
GENIUS_GENHATCH_13
 70
     0
  0
ENDTAB
  0
TABLE
  2
DIMSTYLE
  5
A
330
0
100
AcDbSymbolTable
 70
    11
100
AcDbDimStyleTable
 71
     3
340
291
340
27
340
137
  0
DIMSTYLE
105
1B0
330
A
100
AcDbSymbolTableRecord
100
AcDbDimStyleTableRecord
  2
Standard
 70
     0
340
11
  0
DIMSTYLE
105
137
330
A
100
AcDbSymbolTableRecord
100
AcDbDimStyleTableRecord
  2
Annotative
 70
     0
 40
0.0
 41
2.5
 42
0.625
 43
3.75
 44
1.25
 73
     0
 74
     0
 77
     1
 78
     8
140
2.5
141
2.5
143
0.03937007874016
147
0.625
171
     3
172
     1
271
     2
272
     2
274
     3
278
    44
283
     0
284
     8
340
11
1001
AcadAnnotative
1000
AnnotativeData
1002
{
1070
     1
1070
     1
1002
}
1001
ACAD_DSTYLE_DIMJAG
1070
   388
1040
1.5
1001
ACAD_DSTYLE_DIMTALN
1070
   392
1070
     0
  0
DIMSTYLE
105
27
330
A
100
AcDbSymbolTableRecord
100
AcDbDimStyleTableRecord
  2
ISO-25
 70
     0
 41
2.5
 42
0.625
 43
3.75
 44
1.25
 73
     0
 74
     0
 77
     1
 78
     8
140
2.5
141
2.5
143
0.03937007874016
147
0.625
171
     3
172
     1
271
     2
272
     2
274
     3
278
    44
283
     0
284
     8
340
11
  0
DIMSTYLE
105
291
102
{ACAD_REACTORS
330
785
102
}
330
A
100
AcDbSymbolTableRecord
100
AcDbDimStyleTableRecord
  2
AM_ISO
 70
     0
  4
"
 41
3.5
 42
1.0
 43
10.0
 44
1.0
 47
0.1
 48
0.1
 73
     0
 74
     0
 77
     1
 78
     8
 79
     2
 90
     1
140
3.5
141
0.0
143
0.0393701
146
0.71
147
1.5
172
     1
176
   256
177
   256
178
     2
271
     2
272
     3
274
     4
283
     0
284
     8
340
11
345
14
346
14
347
14
371
    -1
372
    -1
1001
ACAD_DSTYLE_DIMJAG
1070
   388
1040
1.5
1001
ACAD_DSTYLE_DIMBREAK
1070
   391
1040
3.75
  0
DIMSTYLE
105
29D
330
A
100
AcDbSymbolTableRecord
100
AcDbDimStyleTableRecord
  2
AM_ISO$3
 70
     0
  4
"
 41
3.5
 42
1.0
 43
10.0
 44
1.0
 47
0.1
 48
0.1
 73
     0
 77
     1
 78
     8
 79
     2
 90
     1
140
3.5
141
0.0
143
0.0393701
146
0.71
147
1.5
176
   256
177
   256
178
     2
271
     2
272
     3
274
     4
283
     0
284
     8
288
     1
289
     0
340
11
345
14
346
14
347
14
371
    -1
372
    -1
1001
ACAD_DSTYLE_DIMBREAK
1070
   391
1040
3.75
1001
ACAD_DSTYLE_DIMJAG
1070
   388
1040
1.5
  0
DIMSTYLE
105
29E
330
A
100
AcDbSymbolTableRecord
100
AcDbDimStyleTableRecord
  2
AM_ISO$4
 70
     0
  4
"
 41
3.5
 42
1.0
 43
10.0
 44
1.0
 47
0.1
 48
0.1
 73
     0
 77
     1
 78
     8
 79
     2
 90
     1
140
3.5
141
0.0
143
0.0393701
146
0.71
147
1.5
176
   256
177
   256
178
     2
271
     2
272
     3
274
     4
283
     0
284
     8
288
     1
289
     0
340
11
345
14
346
14
347
14
371
    -1
372
    -1
1001
ACAD_DSTYLE_DIMBREAK
1070
   391
1040
3.75
1001
ACAD_DSTYLE_DIMJAG
1070
   388
1040
1.5
  0
DIMSTYLE
105
29F
330
A
100
AcDbSymbolTableRecord
100
AcDbDimStyleTableRecord
  2
AM_ISO$6
 70
     0
  4
"
 41
3.5
 42
1.0
 43
10.0
 44
1.0
 47
0.1
 48
0.1
 73
     0
 74
     0
 78
     8
 79
     2
 90
     1
140
3.5
141
0.0
143
0.0393701
146
0.71
147
1.5
172
     1
176
   256
177
   256
178
     2
271
     2
272
     3
274
     4
283
     0
284
     8
340
11
345
14
346
14
347
14
371
    -1
372
    -1
1001
ACAD_DSTYLE_DIMBREAK
1070
   391
1040
3.75
1001
ACAD_DSTYLE_DIMJAG
1070
   388
1040
1.5
  0
DIMSTYLE
105
2A0
330
A
100
AcDbSymbolTableRecord
100
AcDbDimStyleTableRecord
  2
AM_ISO$7
 70
     0
  4
"
 41
3.5
 42
1.0
 43
10.0
 44
1.0
 47
0.1
 48
0.1
 73
     0
 74
     0
 77
     1
 78
     8
 79
     2
 90
     1
140
3.5
141
0.0
143
0.0393701
146
0.71
147
1.5
172
     1
176
   256
177
   256
178
     2
271
     2
272
     3
274
     4
283
     0
284
     8
340
11
345
14
346
14
347
14
371
    -1
372
    -1
1001
ACAD_DSTYLE_DIMBREAK
1070
   391
1040
3.75
1001
ACAD_DSTYLE_DIMJAG
1070
   388
1040
1.5
  0
DIMSTYLE
105
2A1
330
A
100
AcDbSymbolTableRecord
100
AcDbDimStyleTableRecord
  2
AM_ISO$SF
 70
     0
  4
"
 41
3.5
 42
1.0
 43
10.0
 44
1.0
 47
0.1
 48
0.1
 73
     0
 74
     0
 75
     1
 76
     1
 77
     1
 78
     8
 79
     2
 90
     1
140
3.5
141
0.0
143
0.0393701
146
0.71
147
1.5
172
     1
176
   256
177
   256
178
     2
271
     2
272
     3
274
     4
283
     0
284
     8
340
11
345
14
346
14
347
14
371
    -1
372
    -1
1001
ACAD_DSTYLE_DIMBREAK
1070
   391
1040
3.75
1001
ACAD_DSTYLE_DIMJAG
1070
   388
1040
1.5
  0
DIMSTYLE
105
2A6
330
A
100
AcDbSymbolTableRecord
100
AcDbDimStyleTableRecord
  2
AM_ISO$SH
 70
     0
  4
"
 41
3.5
 42
1.0
 43
10.0
 44
1.0
 47
0.1
 48
0.1
 73
     0
 74
     0
 75
     1
 76
     1
 77
     1
 78
     8
 79
     2
 90
     1
140
3.5
141
0.0
143
0.0393701
144
2.0
146
0.71
147
1.5
172
     1
173
     1
176
   256
177
   256
178
     2
271
     2
272
     3
274
     4
283
     0
284
     8
340
11
343
2A2
345
14
346
14
347
14
371
    -1
372
    -1
1001
ACAD_DSTYLE_DIMBREAK
1070
   391
1040
3.75
1001
ACAD_DSTYLE_DIMJAG
1070
   388
1040
1.5
  0
DIMSTYLE
105
30B
330
A
100
AcDbSymbolTableRecord
100
AcDbDimStyleTableRecord
  2
AM_ISO$0
 70
     0
  4
"
 41
3.5
 42
1.0
 43
10.0
 44
1.0
 47
0.1
 48
0.1
 73
     0
 74
     0
 77
     1
 78
     8
 79
     2
 90
     1
140
3.5
141
0.0
143
0.0393701
146
0.71
147
1.5
172
     1
176
   256
177
   256
178
     2
271
     2
272
     3
274
     4
283
     0
284
     8
340
11
345
14
346
14
347
14
371
    -1
372
    -1
1001
ACAD_DSTYLE_DIMBREAK
1070
   391
1040
3.75
1001
ACAD_DSTYLE_DIMJAG
1070
   388
1040
1.5
  0
ENDTAB
  0
TABLE
  2
BLOCK_RECORD
  5
1
330
0
100
AcDbSymbolTable
 70
    13
  0
BLOCK_RECORD
  5
1F
102
{ACAD_XDICTIONARY
360
1CE
102
}
330
1
100
AcDbSymbolTableRecord
100
AcDbBlockTableRecord
  2
*Model_Space
340
22
 70
     0
280
     1
281
     0
  0
BLOCK_RECORD
  5
D2
330
1
100
AcDbSymbolTableRecord
100
AcDbBlockTableRecord
  2
*Paper_Space
340
D3
 70
     0
280
     1
281
     0
  0
BLOCK_RECORD
  5
D6
330
1
100
AcDbSymbolTableRecord
100
AcDbBlockTableRecord
  2
*Paper_Space0
340
D7
 70
     0
280
     1
281
     0
  0
BLOCK_RECORD
  5
2A2
330
1
100
AcDbSymbolTableRecord
100
AcDbBlockTableRecord
  2
GENAXEH
340
0
 70
     0
280
     1
281
     0
  0
BLOCK_RECORD
  5
2E5
330
1
100
AcDbSymbolTableRecord
100
AcDbBlockTableRecord
  2
*D2
340
0
 70
     0
280
     1
281
     0
  0
BLOCK_RECORD
  5
2F1
330
1
100
AcDbSymbolTableRecord
100
AcDbBlockTableRecord
  2
*D3
340
0
 70
     0
280
     1
281
     0
  0
BLOCK_RECORD
  5
2FD
330
1
100
AcDbSymbolTableRecord
100
AcDbBlockTableRecord
  2
*D4
340
0
 70
     0
280
     1
281
     0
  0
BLOCK_RECORD
  5
35B
330
1
100
AcDbSymbolTableRecord
100
AcDbBlockTableRecord
  2
*D5
340
0
 70
     0
280
     1
281
     0
  0
BLOCK_RECORD
  5
367
330
1
100
AcDbSymbolTableRecord
100
AcDbBlockTableRecord
  2
*D6
340
0
 70
     0
280
     1
281
     0
  0
BLOCK_RECORD
  5
373
330
1
100
AcDbSymbolTableRecord
100
AcDbBlockTableRecord
  2
*D7
340
0
 70
     0
280
     1
281
     0
  0
BLOCK_RECORD
  5
3A4
330
1
100
AcDbSymbolTableRecord
100
AcDbBlockTableRecord
  2
*D8
340
0
 70
     0
280
     1
281
     0
  0
BLOCK_RECORD
  5
43C
330
1
100
AcDbSymbolTableRecord
100
AcDbBlockTableRecord
  2
*D9
340
0
 70
     0
280
     1
281
     0
  0
BLOCK_RECORD
  5
481
330
1
100
AcDbSymbolTableRecord
100
AcDbBlockTableRecord
  2
*D10
340
0
 70
     0
280
     1
281
     0
  0
ENDTAB
  0
ENDSEC
  0
SECTION
  2
BLOCKS
  0
BLOCK
  5
20
330
1F
100
AcDbEntity
  8
0
100
AcDbBlockBegin
  2
*Model_Space
 70
     0
 10
0.0
 20
0.0
 30
0.0
  3
*Model_Space
  1

  0
ENDBLK
  5
21
330
1F
100
AcDbEntity
  8
0
100
AcDbBlockEnd
  0
BLOCK
  5
D4
330
D2
100
AcDbEntity
 67
     1
  8
0
100
AcDbBlockBegin
  2
*Paper_Space
 70
     0
 10
0.0
 20
0.0
 30
0.0
  3
*Paper_Space
  1

  0
ENDBLK
  5
D5
330
D2
100
AcDbEntity
 67
     1
  8
0
100
AcDbBlockEnd
  0
BLOCK
  5
D8
330
D6
100
AcDbEntity
 67
     1
  8
0
100
AcDbBlockBegin
  2
*Paper_Space0
 70
     0
 10
0.0
 20
0.0
 30
0.0
  3
*Paper_Space0
  1

  0
ENDBLK
  5
D9
330
D6
100
AcDbEntity
 67
     1
  8
0
100
AcDbBlockEnd
  0
BLOCK
  5
2A4
330
2A2
100
AcDbEntity
  8
0
100
AcDbBlockBegin
  2
GENAXEH
 70
     0
 10
0.0
 20
0.0
 30
0.0
  3
GENAXEH
  1

  0
LINE
  5
2A3
330
2A2
100
AcDbEntity
  8
0
100
AcDbLine
 10
-1.0
 20
0.0
 30
0.0
 11
1.0
 21
0.0
 31
0.0
  0
ENDBLK
  5
2A5
330
2A2
100
AcDbEntity
  8
0
100
AcDbBlockEnd
  0
BLOCK
  5
2E6
330
2E5
100
AcDbEntity
  8
0
100
AcDbBlockBegin
  2
*D2
 70
     1
 10
0.0
 20
0.0
 30
0.0
  3
*D2
  1

  0
LINE
  5
2E7
330
2E5
100
AcDbEntity
  8
AM_5
  6
ByBlock
440
 16777216
100
AcDbLine
 10
2665.278184009198
 20
1488.57065809207
 30
0.0
 11
2665.278184009198
 21
1462.891033098775
 31
0.0
  0
LINE
  5
2E8
330
2E5
100
AcDbEntity
  8
AM_5
  6
ByBlock
440
 16777216
100
AcDbLine
 10
2807.278184009198
 20
1488.57065809207
 30
0.0
 11
2807.278184009198
 21
1462.891033098775
 31
0.0
  0
LINE
  5
2E9
330
2E5
100
AcDbEntity
  8
AM_5
  6
ByBlock
440
 16777216
100
AcDbLine
 10
2668.778184009198
 20
1463.891033098775
 30
0.0
 11
2803.778184009198
 21
1463.891033098775
 31
0.0
  0
SOLID
  5
2EA
330
2E5
100
AcDbEntity
  8
AM_5
440
 16777216
100
AcDbTrace
 10
2668.778184009198
 20
1464.474366432109
 30
0.0
 11
2668.778184009198
 21
1463.307699765442
 31
0.0
 12
2665.278184009198
 22
1463.891033098775
 32
0.0
 13
2665.278184009198
 23
1463.891033098775
 33
0.0
  0
SOLID
  5
2EB
330
2E5
100
AcDbEntity
  8
AM_5
440
 16777216
100
AcDbTrace
 10
2803.778184009198
 20
1464.474366432109
 30
0.0
 11
2803.778184009198
 21
1463.307699765442
 31
0.0
 12
2807.278184009198
 22
1463.891033098775
 32
0.0
 13
2807.278184009198
 23
1463.891033098775
 33
0.0
  0
MTEXT
  5
2EC
330
2E5
100
AcDbEntity
  8
AM_5
 62
     2
440
 16777216
100
AcDbMText
 10
2736.278184009198
 20
1470.392017350744
 30
0.0
 40
10.0
 41
0.0
 46
0.0
 71
     5
 72
     1
  1
142
 73
     1
 44
1.0
  0
POINT
  5
2ED
330
2E5
100
AcDbEntity
  8
Defpoints
 62
     0
440
 16777216
100
AcDbPoint
 10
2665.278184009198
 20
1489.57065809207
 30
0.0
  0
POINT
  5
2EE
330
2E5
100
AcDbEntity
  8
Defpoints
 62
     0
440
 16777216
100
AcDbPoint
 10
2807.278184009198
 20
1489.57065809207
 30
0.0
  0
POINT
  5
2EF
330
2E5
100
AcDbEntity
  8
Defpoints
 62
     0
440
 16777216
100
AcDbPoint
 10
2807.278184009198
 20
1463.891033098775
 30
0.0
  0
ENDBLK
  5
2F0
330
2E5
100
AcDbEntity
  8
0
100
AcDbBlockEnd
  0
BLOCK
  5
2F2
330
2F1
100
AcDbEntity
  8
0
100
AcDbBlockBegin
  2
*D3
 70
     1
 10
0.0
 20
0.0
 30
0.0
  3
*D3
  1

  0
LINE
  5
2F3
330
2F1
100
AcDbEntity
  8
AM_5
  6
ByBlock
440
 16777216
100
AcDbLine
 10
2891.675998564262
 20
1518.490278266021
 30
0.0
 11
2891.675998564262
 21
1462.891033098774
 31
0.0
  0
LINE
  5
2F4
330
2F1
100
AcDbEntity
  8
AM_5
  6
ByBlock
440
 16777216
100
AcDbLine
 10
3158.756163314172
 20
1518.570658092069
 30
0.0
 11
3158.756163314172
 21
1462.891033098774
 31
0.0
  0
LINE
  5
2F5
330
2F1
100
AcDbEntity
  8
AM_5
  6
ByBlock
440
 16777216
100
AcDbLine
 10
2895.175998564261
 20
1463.891033098774
 30
0.0
 11
3155.256163314172
 21
1463.891033098774
 31
0.0
  0
SOLID
  5
2F6
330
2F1
100
AcDbEntity
  8
AM_5
440
 16777216
100
AcDbTrace
 10
2895.175998564261
 20
1464.474366432107
 30
0.0
 11
2895.175998564261
 21
1463.307699765441
 31
0.0
 12
2891.675998564262
 22
1463.891033098774
 32
0.0
 13
2891.675998564262
 23
1463.891033098774
 33
0.0
  0
SOLID
  5
2F7
330
2F1
100
AcDbEntity
  8
AM_5
440
 16777216
100
AcDbTrace
 10
3155.256163314172
 20
1464.474366432107
 30
0.0
 11
3155.256163314172
 21
1463.307699765441
 31
0.0
 12
3158.756163314172
 22
1463.891033098774
 32
0.0
 13
3158.756163314172
 23
1463.891033098774
 33
0.0
  0
MTEXT
  5
2F8
330
2F1
100
AcDbEntity
  8
AM_5
 62
     2
440
 16777216
100
AcDbMText
 10
3025.216080939217
 20
1470.392017350742
 30
0.0
 40
10.0
 41
0.0
 46
0.0
 71
     5
 72
     1
  1
267
 73
     1
 44
1.0
  0
POINT
  5
2F9
330
2F1
100
AcDbEntity
  8
Defpoints
 62
     0
440
 16777216
100
AcDbPoint
 10
2891.675998564262
 20
1519.490278266021
 30
0.0
  0
POINT
  5
2FA
330
2F1
100
AcDbEntity
  8
Defpoints
 62
     0
440
 16777216
100
AcDbPoint
 10
3158.756163314172
 20
1519.570658092069
 30
0.0
  0
POINT
  5
2FB
330
2F1
100
AcDbEntity
  8
Defpoints
 62
     0
440
 16777216
100
AcDbPoint
 10
3158.756163314172
 20
1463.891033098774
 30
0.0
  0
ENDBLK
  5
2FC
330
2F1
100
AcDbEntity
  8
0
100
AcDbBlockEnd
  0
BLOCK
  5
2FE
330
2FD
100
AcDbEntity
  8
0
100
AcDbBlockBegin
  2
*D4
 70
     1
 10
0.0
 20
0.0
 30
0.0
  3
*D4
  1

  0
LINE
  5
2FF
330
2FD
100
AcDbEntity
  8
AM_5
  6
ByBlock
440
 16777216
100
AcDbLine
 10
3129.756163314172
 20
1724.570658092069
 30
0.0
 11
3188.946545404795
 21
1724.570658092069
 31
0.0
  0
LINE
  5
300
330
2FD
100
AcDbEntity
  8
AM_5
  6
ByBlock
440
 16777216
100
AcDbLine
 10
3129.756163314172
 20
1489.57065809207
 30
0.0
 11
3188.946545404795
 21
1489.57065809207
 31
0.0
  0
LINE
  5
301
330
2FD
100
AcDbEntity
  8
AM_5
  6
ByBlock
440
 16777216
100
AcDbLine
 10
3187.946545404795
 20
1721.07065809207
 30
0.0
 11
3187.946545404795
 21
1493.07065809207
 31
0.0
  0
SOLID
  5
302
330
2FD
100
AcDbEntity
  8
AM_5
440
 16777216
100
AcDbTrace
 10
3187.363212071462
 20
1721.07065809207
 30
0.0
 11
3188.529878738128
 21
1721.07065809207
 31
0.0
 12
3187.946545404795
 22
1724.570658092069
 32
0.0
 13
3187.946545404795
 23
1724.570658092069
 33
0.0
  0
SOLID
  5
303
330
2FD
100
AcDbEntity
  8
AM_5
440
 16777216
100
AcDbTrace
 10
3187.363212071462
 20
1493.07065809207
 30
0.0
 11
3188.529878738128
 21
1493.07065809207
 31
0.0
 12
3187.946545404795
 22
1489.57065809207
 32
0.0
 13
3187.946545404795
 23
1489.57065809207
 33
0.0
  0
MTEXT
  5
304
330
2FD
100
AcDbEntity
  8
AM_5
 62
     2
440
 16777216
100
AcDbMText
 10
3181.445561152826
 20
1607.07065809207
 30
0.0
 40
10.0
 41
0.0
 46
0.0
 71
     5
 72
     1
  1
235
 11
0.0000000000000001
 21
1.0
 31
0.0
 73
     1
 44
1.0
  0
POINT
  5
305
330
2FD
100
AcDbEntity
  8
Defpoints
 62
     0
440
 16777216
100
AcDbPoint
 10
3128.756163314172
 20
1724.570658092069
 30
0.0
  0
POINT
  5
306
330
2FD
100
AcDbEntity
  8
Defpoints
 62
     0
440
 16777216
100
AcDbPoint
 10
3128.756163314172
 20
1489.57065809207
 30
0.0
  0
POINT
  5
307
330
2FD
100
AcDbEntity
  8
Defpoints
 62
     0
440
 16777216
100
AcDbPoint
 10
3187.946545404795
 20
1489.57065809207
 30
0.0
  0
ENDBLK
  5
308
330
2FD
100
AcDbEntity
  8
0
100
AcDbBlockEnd
  0
BLOCK
  5
35C
330
35B
100
AcDbEntity
  8
0
100
AcDbBlockBegin
  2
*D5
 70
     1
 10
0.0
 20
0.0
 30
0.0
  3
*D5
  1

  0
LINE
  5
35E
330
35B
100
AcDbEntity
  8
AM_5
  6
ByBlock
440
 16777216
100
AcDbLine
 10
2733.044192676163
 20
1503.075155012853
 30
0.0
 11
2733.044192676163
 21
1477.395530019559
 31
0.0
  0
LINE
  5
35F
330
35B
100
AcDbEntity
  8
AM_5
  6
ByBlock
440
 16777216
100
AcDbLine
 10
2875.044192676162
 20
1503.075155012853
 30
0.0
 11
2875.044192676162
 21
1477.395530019559
 31
0.0
  0
LINE
  5
360
330
35B
100
AcDbEntity
  8
AM_5
  6
ByBlock
440
 16777216
100
AcDbLine
 10
2736.544192676162
 20
1478.395530019559
 30
0.0
 11
2871.544192676161
 21
1478.395530019559
 31
0.0
  0
SOLID
  5
361
330
35B
100
AcDbEntity
  8
AM_5
440
 16777216
100
AcDbTrace
 10
2736.544192676162
 20
1478.978863352893
 30
0.0
 11
2736.544192676162
 21
1477.812196686226
 31
0.0
 12
2733.044192676163
 22
1478.395530019559
 32
0.0
 13
2733.044192676163
 23
1478.395530019559
 33
0.0
  0
SOLID
  5
362
330
35B
100
AcDbEntity
  8
AM_5
440
 16777216
100
AcDbTrace
 10
2871.544192676161
 20
1478.978863352893
 30
0.0
 11
2871.544192676161
 21
1477.812196686226
 31
0.0
 12
2875.044192676162
 22
1478.395530019559
 32
0.0
 13
2875.044192676162
 23
1478.395530019559
 33
0.0
  0
MTEXT
  5
363
330
35B
100
AcDbEntity
  8
AM_5
 62
     2
440
 16777216
100
AcDbMText
 10
2804.044192676162
 20
1484.896514271528
 30
0.0
 40
10.0
 41
0.0
 46
0.0
 71
     5
 72
     1
  1
142
 73
     1
 44
1.0
  0
POINT
  5
364
330
35B
100
AcDbEntity
  8
Defpoints
 62
     0
440
 16777216
100
AcDbPoint
 10
2733.044192676163
 20
1504.075155012853
 30
0.0
  0
POINT
  5
365
330
35B
100
AcDbEntity
  8
Defpoints
 62
     0
440
 16777216
100
AcDbPoint
 10
2875.044192676162
 20
1504.075155012853
 30
0.0
  0
POINT
  5
366
330
35B
100
AcDbEntity
  8
Defpoints
 62
     0
440
 16777216
100
AcDbPoint
 10
2875.044192676162
 20
1478.395530019559
 30
0.0
  0
ENDBLK
  5
35D
330
35B
100
AcDbEntity
  8
0
100
AcDbBlockEnd
  0
BLOCK
  5
368
330
367
100
AcDbEntity
  8
0
100
AcDbBlockBegin
  2
*D6
 70
     1
 10
0.0
 20
0.0
 30
0.0
  3
*D6
  1

  0
LINE
  5
36A
330
367
100
AcDbEntity
  8
AM_5
  6
ByBlock
440
 16777216
100
AcDbLine
 10
2959.442007231225
 20
1532.994775186805
 30
0.0
 11
2959.442007231225
 21
1477.395530019558
 31
0.0
  0
LINE
  5
36B
330
367
100
AcDbEntity
  8
AM_5
  6
ByBlock
440
 16777216
100
AcDbLine
 10
3226.522171981136
 20
1533.075155012853
 30
0.0
 11
3226.522171981136
 21
1477.395530019558
 31
0.0
  0
LINE
  5
36C
330
367
100
AcDbEntity
  8
AM_5
  6
ByBlock
440
 16777216
100
AcDbLine
 10
2962.942007231225
 20
1478.395530019558
 30
0.0
 11
3223.022171981135
 21
1478.395530019558
 31
0.0
  0
SOLID
  5
36D
330
367
100
AcDbEntity
  8
AM_5
440
 16777216
100
AcDbTrace
 10
2962.942007231225
 20
1478.978863352891
 30
0.0
 11
2962.942007231225
 21
1477.812196686224
 31
0.0
 12
2959.442007231225
 22
1478.395530019558
 32
0.0
 13
2959.442007231225
 23
1478.395530019558
 33
0.0
  0
SOLID
  5
36E
330
367
100
AcDbEntity
  8
AM_5
440
 16777216
100
AcDbTrace
 10
3223.022171981135
 20
1478.978863352891
 30
0.0
 11
3223.022171981135
 21
1477.812196686224
 31
0.0
 12
3226.522171981136
 22
1478.395530019558
 32
0.0
 13
3226.522171981136
 23
1478.395530019558
 33
0.0
  0
MTEXT
  5
36F
330
367
100
AcDbEntity
  8
AM_5
 62
     2
440
 16777216
100
AcDbMText
 10
3092.98208960618
 20
1484.896514271525
 30
0.0
 40
10.0
 41
0.0
 46
0.0
 71
     5
 72
     1
  1
267
 73
     1
 44
1.0
  0
POINT
  5
370
330
367
100
AcDbEntity
  8
Defpoints
 62
     0
440
 16777216
100
AcDbPoint
 10
2959.442007231225
 20
1533.994775186805
 30
0.0
  0
POINT
  5
371
330
367
100
AcDbEntity
  8
Defpoints
 62
     0
440
 16777216
100
AcDbPoint
 10
3226.522171981136
 20
1534.075155012853
 30
0.0
  0
POINT
  5
372
330
367
100
AcDbEntity
  8
Defpoints
 62
     0
440
 16777216
100
AcDbPoint
 10
3226.522171981136
 20
1478.395530019558
 30
0.0
  0
ENDBLK
  5
369
330
367
100
AcDbEntity
  8
0
100
AcDbBlockEnd
  0
BLOCK
  5
374
330
373
100
AcDbEntity
  8
0
100
AcDbBlockBegin
  2
*D7
 70
     1
 10
0.0
 20
0.0
 30
0.0
  3
*D7
  1

  0
LINE
  5
376
330
373
100
AcDbEntity
  8
AM_5
  6
ByBlock
440
 16777216
100
AcDbLine
 10
3197.522171981136
 20
1739.075155012853
 30
0.0
 11
3256.712554071759
 21
1739.075155012853
 31
0.0
  0
LINE
  5
377
330
373
100
AcDbEntity
  8
AM_5
  6
ByBlock
440
 16777216
100
AcDbLine
 10
3197.522171981136
 20
1504.075155012853
 30
0.0
 11
3256.712554071759
 21
1504.075155012853
 31
0.0
  0
LINE
  5
378
330
373
100
AcDbEntity
  8
AM_5
  6
ByBlock
440
 16777216
100
AcDbLine
 10
3255.712554071759
 20
1735.575155012853
 30
0.0
 11
3255.712554071759
 21
1507.575155012854
 31
0.0
  0
SOLID
  5
379
330
373
100
AcDbEntity
  8
AM_5
440
 16777216
100
AcDbTrace
 10
3255.129220738426
 20
1735.575155012853
 30
0.0
 11
3256.295887405092
 21
1735.575155012853
 31
0.0
 12
3255.712554071759
 22
1739.075155012853
 32
0.0
 13
3255.712554071759
 23
1739.075155012853
 33
0.0
  0
SOLID
  5
37A
330
373
100
AcDbEntity
  8
AM_5
440
 16777216
100
AcDbTrace
 10
3255.129220738426
 20
1507.575155012854
 30
0.0
 11
3256.295887405092
 21
1507.575155012854
 31
0.0
 12
3255.712554071759
 22
1504.075155012853
 32
0.0
 13
3255.712554071759
 23
1504.075155012853
 33
0.0
  0
MTEXT
  5
37B
330
373
100
AcDbEntity
  8
AM_5
 62
     2
440
 16777216
100
AcDbMText
 10
3249.21156981979
 20
1621.575155012854
 30
0.0
 40
10.0
 41
0.0
 46
0.0
 71
     5
 72
     1
  1
235
 11
0.0000000000000001
 21
1.0
 31
0.0
 73
     1
 44
1.0
  0
POINT
  5
37C
330
373
100
AcDbEntity
  8
Defpoints
 62
     0
440
 16777216
100
AcDbPoint
 10
3196.522171981136
 20
1739.075155012853
 30
0.0
  0
POINT
  5
37D
330
373
100
AcDbEntity
  8
Defpoints
 62
     0
440
 16777216
100
AcDbPoint
 10
3196.522171981136
 20
1504.075155012853
 30
0.0
  0
POINT
  5
37E
330
373
100
AcDbEntity
  8
Defpoints
 62
     0
440
 16777216
100
AcDbPoint
 10
3255.712554071759
 20
1504.075155012853
 30
0.0
  0
ENDBLK
  5
375
330
373
100
AcDbEntity
  8
0
100
AcDbBlockEnd
  0
BLOCK
  5
3A5
330
3A4
100
AcDbEntity
  8
0
100
AcDbBlockBegin
  2
*D8
 70
     1
 10
0.0
 20
0.0
 30
0.0
  3
*D8
  1

  0
LINE
  5
54C
330
3A4
100
AcDbEntity
  8
AM_5
  6
ByBlock
440
 16777216
100
AcDbLine
 10
3280.383905446705
 20
1793.143068309117
 30
0.0
 11
3313.670389323075
 21
1793.143068309117
 31
0.0
  0
LINE
  5
54D
330
3A4
100
AcDbEntity
  8
AM_5
  6
ByBlock
440
 16777216
100
AcDbLine
 10
3158.87900764403
 20
1490.794096821968
 30
0.0
 11
3313.670389323075
 21
1490.794096821968
 31
0.0
  0
LINE
  5
54E
330
3A4
100
AcDbEntity
  8
AM_5
  6
ByBlock
440
 16777216
100
AcDbLine
 10
3312.670389323076
 20
1789.643068309117
 30
0.0
 11
3312.670389323076
 21
1494.294096821968
 31
0.0
  0
SOLID
  5
54F
330
3A4
100
AcDbEntity
  8
AM_5
440
 16777216
100
AcDbTrace
 10
3312.087055989742
 20
1789.643068309117
 30
0.0
 11
3313.253722656409
 21
1789.643068309117
 31
0.0
 12
3312.670389323076
 22
1793.143068309117
 32
0.0
 13
3312.670389323076
 23
1793.143068309117
 33
0.0
  0
SOLID
  5
550
330
3A4
100
AcDbEntity
  8
AM_5
440
 16777216
100
AcDbTrace
 10
3312.087055989742
 20
1494.294096821968
 30
0.0
 11
3313.253722656409
 21
1494.294096821968
 31
0.0
 12
3312.670389323076
 22
1490.794096821968
 32
0.0
 13
3312.670389323076
 23
1490.794096821968
 33
0.0
  0
MTEXT
  5
551
330
3A4
100
AcDbEntity
  8
AM_5
 62
     2
440
 16777216
100
AcDbMText
 10
3306.169405071106
 20
1641.968582565542
 30
0.0
 40
10.0
 41
0.0
 46
0.0
 71
     5
 72
     1
  1
295
 11
0.0000000000000001
 21
1.0
 31
0.0
 73
     1
 44
1.0
  0
POINT
  5
552
330
3A4
100
AcDbEntity
  8
Defpoints
 62
     0
440
 16777216
100
AcDbPoint
 10
3279.383905446704
 20
1793.143068309117
 30
0.0
  0
POINT
  5
553
330
3A4
100
AcDbEntity
  8
Defpoints
 62
     0
440
 16777216
100
AcDbPoint
 10
3157.879007644029
 20
1490.794096821968
 30
0.0
  0
POINT
  5
554
330
3A4
100
AcDbEntity
  8
Defpoints
 62
     0
440
 16777216
100
AcDbPoint
 10
3312.670389323076
 20
1490.794096821968
 30
0.0
  0
ENDBLK
  5
3A6
330
3A4
100
AcDbEntity
  8
0
100
AcDbBlockEnd
  0
BLOCK
  5
43D
330
43C
100
AcDbEntity
  8
0
100
AcDbBlockBegin
  2
*D9
 70
     1
 10
0.0
 20
0.0
 30
0.0
  3
*D9
  1

  0
LINE
  5
53A
330
43C
100
AcDbEntity
  8
AM_5
  6
ByBlock
440
 16777216
100
AcDbLine
 10
2959.383905446705
 20
1497.143068309117
 30
0.0
 11
2959.383905446705
 21
1447.74735286465
 31
0.0
  0
LINE
  5
53B
330
43C
100
AcDbEntity
  8
AM_5
  6
ByBlock
440
 16777216
100
AcDbLine
 10
3279.383905446704
 20
1497.143068309117
 30
0.0
 11
3279.383905446704
 21
1447.74735286465
 31
0.0
  0
LINE
  5
53C
330
43C
100
AcDbEntity
  8
AM_5
  6
ByBlock
440
 16777216
100
AcDbLine
 10
2962.883905446704
 20
1448.74735286465
 30
0.0
 11
3275.883905446705
 21
1448.74735286465
 31
0.0
  0
SOLID
  5
53D
330
43C
100
AcDbEntity
  8
AM_5
440
 16777216
100
AcDbTrace
 10
2962.883905446704
 20
1449.330686197984
 30
0.0
 11
2962.883905446704
 21
1448.164019531317
 31
0.0
 12
2959.383905446705
 22
1448.74735286465
 32
0.0
 13
2959.383905446705
 23
1448.74735286465
 33
0.0
  0
SOLID
  5
53E
330
43C
100
AcDbEntity
  8
AM_5
440
 16777216
100
AcDbTrace
 10
3275.883905446705
 20
1449.330686197984
 30
0.0
 11
3275.883905446705
 21
1448.164019531317
 31
0.0
 12
3279.383905446704
 22
1448.74735286465
 32
0.0
 13
3279.383905446704
 23
1448.74735286465
 33
0.0
  0
MTEXT
  5
53F
330
43C
100
AcDbEntity
  8
AM_5
 62
     2
440
 16777216
100
AcDbMText
 10
3119.383905446705
 20
1455.248337116619
 30
0.0
 40
10.0
 41
0.0
 46
0.0
 71
     5
 72
     1
  1
320
 73
     1
 44
1.0
  0
POINT
  5
540
330
43C
100
AcDbEntity
  8
Defpoints
 62
     0
440
 16777216
100
AcDbPoint
 10
2959.383905446705
 20
1498.143068309117
 30
0.0
  0
POINT
  5
541
330
43C
100
AcDbEntity
  8
Defpoints
 62
     0
440
 16777216
100
AcDbPoint
 10
3279.383905446704
 20
1498.143068309117
 30
0.0
  0
POINT
  5
542
330
43C
100
AcDbEntity
  8
Defpoints
 62
     0
440
 16777216
100
AcDbPoint
 10
3279.383905446704
 20
1448.74735286465
 30
0.0
  0
ENDBLK
  5
43E
330
43C
100
AcDbEntity
  8
0
100
AcDbBlockEnd
  0
BLOCK
  5
482
330
481
100
AcDbEntity
  8
0
100
AcDbBlockBegin
  2
*D10
 70
     1
 10
0.0
 20
0.0
 30
0.0
  3
*D10
  1

  0
LINE
  5
543
330
481
100
AcDbEntity
  8
AM_5
  6
ByBlock
440
 16777216
100
AcDbLine
 10
2935.928945623425
 20
1498.591052121725
 30
0.0
 11
2935.928945623425
 21
1447.747352864649
 31
0.0
  0
LINE
  5
544
330
481
100
AcDbEntity
  8
AM_5
  6
ByBlock
440
 16777216
100
AcDbLine
 10
2771.020888828612
 20
1653.59844321776
 30
0.0
 11
2771.020888828612
 21
1447.747352864649
 31
0.0
  0
LINE
  5
545
330
481
100
AcDbEntity
  8
AM_5
  6
ByBlock
440
 16777216
100
AcDbLine
 10
2932.428945623425
 20
1448.747352864649
 30
0.0
 11
2774.520888828613
 21
1448.747352864649
 31
0.0
  0
SOLID
  5
546
330
481
100
AcDbEntity
  8
AM_5
440
 16777216
100
AcDbTrace
 10
2932.428945623425
 20
1449.330686197981
 30
0.0
 11
2932.428945623425
 21
1448.164019531316
 31
0.0
 12
2935.928945623425
 22
1448.747352864649
 32
0.0
 13
2935.928945623425
 23
1448.747352864649
 33
0.0
  0
SOLID
  5
547
330
481
100
AcDbEntity
  8
AM_5
440
 16777216
100
AcDbTrace
 10
2774.520888828613
 20
1449.330686197981
 30
0.0
 11
2774.520888828613
 21
1448.164019531316
 31
0.0
 12
2771.020888828612
 22
1448.747352864649
 32
0.0
 13
2771.020888828612
 23
1448.747352864649
 33
0.0
  0
MTEXT
  5
548
330
481
100
AcDbEntity
  8
AM_5
 62
     2
440
 16777216
100
AcDbMText
 10
2853.474917226018
 20
1455.247352864649
 30
0.0
 40
10.0
 41
0.0
 46
0.0
 71
     5
 72
     1
  1
165
 73
     1
 44
1.0
  0
POINT
  5
549
330
481
100
AcDbEntity
  8
Defpoints
 62
     0
440
 16777216
100
AcDbPoint
 10
2935.928945623425
 20
1499.591052121725
 30
0.0
  0
POINT
  5
54A
330
481
100
AcDbEntity
  8
Defpoints
 62
     0
440
 16777216
100
AcDbPoint
 10
2771.020888828612
 20
1654.59844321776
 30
0.0
  0
POINT
  5
54B
330
481
100
AcDbEntity
  8
Defpoints
 62
     0
440
 16777216
100
AcDbPoint
 10
2771.020888828612
 20
1448.747352864649
 30
0.0
  0
ENDBLK
  5
483
330
481
100
AcDbEntity
  8
0
100
AcDbBlockEnd
  0
ENDSEC
  0
SECTION
  2
ENTITIES
  0
MTEXT
  5
340
330
1F
100
AcDbEntity
  8
0
100
AcDbMText
 10
2983.039219802661
 20
1423.865911340086
 30
0.0
 40
20.0
 41
695.5190882211808
 46
0.0
 71
     1
 72
     5
  1
Nazwa produktu:Impeco streamflow stalowa mat
 73
     1
 44
1.0
1001
ACAD
1000
ACAD_MTEXT_COLUMN_INFO_BEGIN
1070
    75
1070
     2
1070
    79
1070
     0
1070
    76
1070
     1
1070
    78
1070
     0
1070
    48
1040
695.5190882211808
1070
    49
1040
12.5
1070
    50
1070
     1
1040
0.0
1000
ACAD_MTEXT_COLUMN_INFO_END
  0
MTEXT
  5
341
330
1F
100
AcDbEntity
  8
0
100
AcDbMText
 10
2981.6195187799
 20
1352.64770159694
 30
0.0
 40
20.0
 41
488.6573107911899
 46
0.0
 71
     1
 72
     5
  1
Kod produktu: HD1IF3, HD1IF2,HD1IF1
 73
     1
 44
1.0
1001
ACAD
1000
ACAD_MTEXT_COLUMN_INFO_BEGIN
1070
    75
1070
     2
1070
    79
1070
     0
1070
    76
1070
     1
1070
    78
1070
     0
1070
    48
1040
488.6573107911899
1070
    49
1040
12.5
1070
    50
1070
     1
1040
0.0
1000
ACAD_MTEXT_COLUMN_INFO_END
  0
OLE2FRAME
  5
342
330
1F
100
AcDbEntity
  8
0
100
AcDbOle2Frame
 70
     2
 73
     1
 90
        0
1001
ACAD
1000
OLEBEGIN
1070
    70
1070
     1
1070
    71
1070
     1
1070
    40
1040
0.0
1070
    41
1040
95.30687720922287
1070
    42
1040
95.57899855102276
1070
    72
1070
     0
1070
     3
1000

1070
    90
1071
        0
1070
    43
1040
0.0
1070
     4
1000

1070
    91
1071
        0
1070
    44
1040
0.0
1000
OLEEND
  0
LWPOLYLINE
  5
343
330
1F
100
AcDbEntity
  8
0
100
AcDbPolyline
 90
        4
 70
     1
 43
0.0
 10
2661.215622445196
 20
1289.957316473486
 10
4034.695626432998
 20
1282.411093126013
 10
4034.695626432998
 20
2128.089081975273
 10
2661.215622445196
 20
2135.635305322746
1001
GENIUS_GENREC_14
1002
{
1000
PYDIR
1011
2661.215622445196
1021
1824.242098998905
1031
0.0
1002
}
1002
{
1000
PXDIR
1011
3339.112856446256
1021
1289.957316473486
1031
0.0
1002
}
1002
{
1000
PORI
1011
2661.215622445196
1021
1289.957316473486
1031
0.0
1002
}
1002
{
1000
PINS
1011
2661.215622445196
1021
1289.957316473486
1031
0.0
1002
}
1002
{
1000
PINS2
1011
3339.112856446256
1021
1824.242098998905
1031
0.0
1002
}
1002
{
1000
C
1070
     1
1002
}
1001
GENIUS_GENOBJ-N-REC_13
1002
{
1000
OWNER
1000
GEN
1002
}
1001
GENIUS_GENODEF_13
1002
{
1000
HIER
1070
     0
1002
}
1002
{
1000
MANEDIT
1070
     0
1002
}
1002
{
1000
NOSEL
1070
     0
1002
}
1002
{
1000
BEHIND
1070
     0
1002
}
1002
{
1000
OTHER
1070
     0
1002
}
1002
{
1000
REACTOR
1002
}
  0
LINE
  5
6B7
330
1F
100
AcDbEntity
  8
Wymiary
100
AcDbLine
 10
3539.290880196483
 20
1761.804869304015
 30
81.6978115657057
 11
3496.864473325292
 21
1786.299766731846
 31
47.05679541432799
210
-0.0000000000000005
220
0.8164965809277257
230
0.5773502691896263
  0
LINE
  5
6B8
330
1F
100
AcDbEntity
  8
Wymiary
100
AcDbLine
 10
3746.473167084138
 20
1881.421618409929
 30
-87.4658173068583
 11
3704.046760212946
 21
1905.916515837759
 31
-122.106833458236
210
-0.0000000000000005
220
0.8164965809277257
230
0.5773502691896263
  0
LINE
  5
6B9
330
1F
100
AcDbEntity
  8
Wymiary
100
AcDbLine
 10
3514.542142854953
 20
1788.341008184166
 30
44.17004406837985
 11
3700.511226307013
 21
1895.710308576162
 31
-107.6730767284953
210
-0.0000000000000005
220
0.8164965809277257
230
0.5773502691896263
  0
SOLID
  5
6BA
330
1F
100
AcDbEntity
  8
Wymiary
100
AcDbTrace
 10
-3512.774375901987
 20
-998.2022394696851
 30
1485.675905548209
 11
-3516.30990980792
 21
-994.6667055637517
 31
1485.675905548209
 12
-3503.935541137156
 22
-985.8278707989192
 32
1485.675905548209
 13
-3503.935541137156
 23
-985.8278707989192
 33
1485.675905548209
210
-0.0000000000000005
220
0.8164965809277257
230
0.5773502691896263
  0
SOLID
  5
6BB
330
1F
100
AcDbEntity
  8
Wymiary
100
AcDbTrace
 10
-3698.743459354048
 20
-1184.171322921747
 30
1485.675905548206
 11
-3702.278993259979
 21
-1180.635789015812
 31
1485.675905548206
 12
-3711.117828024812
 22
-1193.010157686581
 32
1485.675905548206
 13
-3711.117828024812
 23
-1193.010157686581
 33
1485.675905548206
210
-0.0000000000000005
220
0.8164965809277257
230
0.5773502691896263
  0
MTEXT
  5
6BC
330
1F
100
AcDbEntity
  8
Wymiary
100
AcDbMText
 10
3595.036554909205
 20
1849.236838108379
 30
-41.94966450241008
 40
15.0
 41
0.0
 46
0.0
 71
     5
 72
     1
  1
293
210
-0.0000000000000005
220
0.8164965809277257
230
0.5773502691896263
 11
0.7071067811865454
 21
0.408248290463865
 31
-0.5773502691896272
 73
     1
 44
1.0
  0
LINE
  5
6BD
330
1F
100
AcDbEntity
  8
Wymiary
100
AcDbLine
 10
3539.290880196487
 20
1500.525963407138
 30
-103.0542745749753
 11
3496.864473325294
 21
1525.02086083497
 31
-137.695290726353
210
-0.7071067811865456
220
-0.4082482904638648
230
0.5773502691896271
  0
LINE
  5
6BE
330
1F
100
AcDbEntity
  8
Wymiary
100
AcDbLine
 10
3539.290880196487
 20
1761.804869304012
 30
81.6978115657057
 11
3496.864473325294
 21
1786.299766731844
 31
47.05679541432799
210
-0.7071067811865456
220
-0.4082482904638648
230
0.5773502691896271
  0
LINE
  5
6BF
330
1F
100
AcDbEntity
  8
Wymiary
100
AcDbLine
 10
3503.935541137159
 20
1533.185826644247
 30
-123.2615339966123
 11
3503.935541137159
 21
1769.969835113289
 31
44.17004406837985
210
-0.7071067811865456
220
-0.4082482904638648
230
0.5773502691896271
  0
SOLID
  5
6C0
330
1F
100
AcDbEntity
  8
Wymiary
100
AcDbTrace
 10
422.4221290194621
 20
2092.150007412858
 30
-3174.742154503251
 11
425.9576629253943
 21
2095.685541318789
 31
-3174.742154503251
 12
434.7964976902253
 22
2083.311172648025
 32
-3174.742154503251
 13
434.7964976902253
 23
2083.311172648025
 33
-3174.742154503251
210
-0.7071067811865456
220
-0.4082482904638648
230
0.5773502691896271
  0
SOLID
  5
6C1
330
1F
100
AcDbEntity
  8
Wymiary
100
AcDbTrace
 10
217.3611624753628
 20
2297.210973956957
 30
-3174.742154503257
 11
220.8966963812945
 21
2300.746507862894
 31
-3174.742154503257
 12
208.5223277105288
 22
2309.585342627719
 32
-3174.742154503257
 13
208.5223277105288
 23
2309.585342627719
 33
-3174.742154503257
210
-0.7071067811865456
220
-0.4082482904638648
230
0.5773502691896271
  0
MTEXT
  5
6C2
330
1F
100
AcDbEntity
  8
Wymiary
100
AcDbMText
 10
3491.445411465383
 20
1658.78901060698
 30
-49.74389313646497
 40
15.0
 41
0.0
 46
0.0
 71
     5
 72
     1
  1
320
210
-0.7071067811865456
220
-0.4082482904638648
230
0.5773502691896271
 11
-0.0000000000000003
 21
0.8164965809277259
 31
0.5773502691896262
 73
     1
 44
1.0
  0
LINE
  5
6C3
330
1F
100
AcDbEntity
  8
Wymiary
100
AcDbLine
 10
3772.051561292192
 20
1881.088011375375
 30
-86.99402571408972
 11
3814.477968163384
 21
1905.582908803207
 31
-121.6350418654674
210
-0.0000000000000005
220
0.8164965809277257
230
0.5773502691896263
  0
LINE
  5
6C4
330
1F
100
AcDbEntity
  8
Wymiary
100
AcDbLine
 10
3895.795247999839
 20
1809.644560544199
 30
14.04227139409522
 11
3938.221654871031
 21
1834.139457972032
 31
-20.59874475728248
210
-0.0000000000000005
220
0.8164965809277257
230
0.5773502691896263
  0
LINE
  5
6C5
330
1F
100
AcDbEntity
  8
Wymiary
100
AcDbLine
 10
3818.013502069315
 20
1895.37670154161
 30
-107.2012851357267
 11
3920.543985341366
 21
1836.18069942435
 31
-23.48549610323062
210
-0.0000000000000005
220
0.8164965809277257
230
0.5773502691896263
  0
SOLID
  5
6C6
330
1F
100
AcDbEntity
  8
Wymiary
100
AcDbTrace
 10
-3819.781269022282
 20
-1183.593498588146
 30
1485.675905548205
 11
-3816.245735116351
 21
-1180.057964682211
 31
1485.675905548205
 12
-3807.406900351518
 22
-1192.432333352971
 32
1485.675905548205
 13
-3807.406900351518
 23
-1192.432333352971
 33
1485.675905548205
210
-0.0000000000000005
220
0.8164965809277257
230
0.5773502691896263
  0
SOLID
  5
6C7
330
1F
100
AcDbEntity
  8
Wymiary
100
AcDbTrace
 10
-3922.311752294332
 20
-1081.063015316091
 30
1485.675905548207
 11
-3918.7762183884
 21
-1077.527481410163
 31
1485.675905548207
 12
-3931.150587059164
 22
-1068.688646645324
 32
1485.675905548207
 13
-3931.150587059164
 23
-1068.688646645324
 33
1485.675905548207
210
-0.0000000000000005
220
0.8164965809277257
230
0.5773502691896263
  0
MTEXT
  5
6C8
330
1F
100
AcDbEntity
  8
Wymiary
100
AcDbMText
 10
3881.765255845838
 20
1872.987791628532
 30
-75.53858508990197
 40
15.0
 41
0.0
 46
0.0
 71
     5
 72
     1
  1
175
210
-0.0000000000000005
220
0.8164965809277257
230
0.5773502691896263
 11
0.7071067811865498
 21
-0.4082482904638617
 31
0.5773502691896241
 73
     1
 44
1.0
  0
SPLINE
  5
6C9
330
1F
100
AcDbEntity
  8
Model
100
AcDbSpline
210
0.0000000000000179
220
0.0000000000000122
230
1.0
 70
     8
 71
     3
 72
    57
 73
    53
 74
     0
 42
0.000000001
 43
0.0000000001
 40
50.48600534560419
 40
50.48600534560419
 40
50.48600534560419
 40
50.48600534560419
 40
60.78146866103279
 40
60.78146866103279
 40
80.8216503141841
 40
80.8216503141841
 40
94.4149104345109
 40
94.4149104345109
 40
111.479138567626
 40
111.479138567626
 40
134.8352296402342
 40
134.8352296402342
 40
151.4426570108721
 40
151.4426570108721
 40
169.4367712103806
 40
169.4367712103806
 40
182.8250989107135
 40
182.8250989107135
 40
200.0521631017022
 40
200.0521631017022
 40
210.9556232367776
 40
210.9556232367776
 40
221.8590833718529
 40
221.8590833718529
 40
232.7625458532268
 40
232.7625458532268
 40
243.6660083346007
 40
243.6660083346007
 40
243.6660083346007
 40
260.5025455517534
 40
260.5025455517534
 40
277.3390827689062
 40
277.3390827689062
 40
287.4015119033668
 40
287.4015119033668
 40
299.8251113188825
 40
299.8251113188825
 40
315.6136794035851
 40
315.6136794035851
 40
331.4022427321145
 40
331.4022427321145
 40
350.7267289089652
 40
350.7267289089652
 40
363.3463826290213
 40
363.3463826290213
 40
384.5692906975762
 40
384.5692906975762
 40
401.2704474311209
 40
401.2704474311209
 40
420.2156100220793
 40
420.2156100220793
 40
436.846886497844
 40
436.846886497844
 40
436.846886497844
 40
436.846886497844
 10
3559.110174996827
 20
1721.727822746947
 30
0.000000000001819
 10
3561.569222623337
 20
1720.745416500944
 30
0.0
 10
3564.024186639767
 20
1719.610085951545
 30
0.000000000005457
 10
3571.213957270601
 20
1715.827451903297
 30
0.0
 10
3575.90676061859
 20
1712.76482940477
 30
0.000000000001819
 10
3583.566946260277
 20
1706.761867881229
 30
0.000000000001819
 10
3586.603855593939
 20
1704.099655145603
 30
0.000000000003638
 10
3593.275342643656
 20
1697.610860846795
 30
0.000000000001819
 10
3596.86421948768
 20
1693.66049100715
 30
0.000000000001819
 10
3604.992824971123
 20
1683.618581353541
 30
0.0
 10
3609.394957961518
 20
1677.273541298272
 30
0.000000000001819
 10
3616.312192401487
 20
1665.740295663046
 30
0.000000000003638
 10
3619.005388011113
 20
1660.748269470992
 30
0.000000000001819
 10
3624.202642533894
 20
1650.053149512723
 30
0.000000000001819
 10
3626.672267902579
 20
1644.325340838065
 30
0.000000000001819
 10
3630.543759541908
 20
1634.179512488666
 30
0.000000000001819
 10
3632.057194514449
 20
1629.801665623122
 30
0.000000000001819
 10
3635.189369897759
 20
1619.752547548941
 30
0.0
 10
3636.7137761134
 20
1614.07051221466
 30
0.000000000003638
 10
3638.800141464892
 20
1604.860818875381
 30
0.000000000001819
 10
3639.510066522055
 20
1601.307876554683
 30
0.000000000001819
 10
3640.729150300785
 20
1594.270268348647
 30
0.000000000001819
 10
3641.238301429832
 20
1590.785636519499
 30
0.0
 10
3642.053412023385
 20
1583.919121849318
 30
0.000000000001819
 10
3642.359369127813
 20
1580.537273029584
 30
0.0
 10
3642.766673808199
 20
1573.909404203164
 30
0.000000000003638
 10
3642.868024773937
 20
1570.663410014923
 30
0.000000000001819
 10
3642.866857701567
 20
1567.500708873997
 30
0.000000000005457
 10
3642.865055571517
 20
1562.617036778377
 30
0.000000000001819
 10
3642.618679244404
 20
1557.93217182894
 30
0.000000000001819
 10
3641.639377763361
 20
1549.062630789325
 30
0.000000000001819
 10
3640.906449186061
 20
1544.878164644331
 30
0.000000000001819
 10
3639.353408172503
 20
1538.662373434371
 30
0.000000000001819
 10
3638.687079954092
 20
1536.441960543965
 30
0.000000000001819
 10
3637.010219721791
 20
1531.731370720426
 30
0.000000000001819
 10
3635.955567826859
 20
1529.3001725384
 30
0.000000000001819
 10
3633.276568910959
 20
1524.195886926867
 30
0.000000000001819
 10
3631.57520550776
 20
1521.635875030089
 30
0.000000000001819
 10
3627.785316155764
 20
1517.14711541109
 30
0.000000000001819
 10
3625.696813188123
 20
1515.218356912389
 30
0.000000000001819
 10
3620.645669367549
 20
1511.658631652268
 30
0.000000000001819
 10
3617.591539289688
 20
1510.191271835789
 30
0.0
 10
3612.132523872779
 20
1508.597609168029
 30
0.000000000001819
 10
3609.870218266627
 20
1508.182419496303
 30
0.000000000003638
 10
3603.544817950594
 20
1507.644897110151
 30
0.000000000003638
 10
3599.304763962564
 20
1507.916050632089
 30
0.000000000001819
 10
3591.337169783028
 20
1509.465447349153
 30
0.000000000003638
 10
3587.693163990933
 20
1510.516531835801
 30
0.000000000001819
 10
3579.699961785808
 20
1513.517556431206
 30
0.000000000001819
 10
3575.321859056729
 20
1515.569367135412
 30
0.0
 10
3566.966178966008
 20
1520.223054291526
 30
0.000000000005457
 10
3563.004960349384
 20
1522.727077354489
 30
0.000000000001819
 10
3559.03311491255
 20
1525.532815884602
 30
0.000000000001819
  0
SPLINE
  5
6CA
330
1F
100
AcDbEntity
  8
Model
100
AcDbSpline
210
0.0
220
0.0
230
1.0
 70
     8
 71
     3
 72
    47
 73
    43
 74
     0
 42
0.000000001
 43
0.0000000001
 40
54.71175538786816
 40
54.71175538786816
 40
54.71175538786816
 40
54.71175538786816
 40
60.78146866103279
 40
60.78146866103279
 40
80.8216503141841
 40
80.8216503141841
 40
94.4149104345109
 40
94.4149104345109
 40
111.479138567626
 40
111.479138567626
 40
134.8352296402342
 40
134.8352296402342
 40
151.4426570108721
 40
151.4426570108721
 40
169.4367712103806
 40
169.4367712103806
 40
182.8250989107135
 40
182.8250989107135
 40
200.0521631017022
 40
200.0521631017022
 40
210.9556232367776
 40
210.9556232367776
 40
221.8590833718529
 40
221.8590833718529
 40
232.7625458532268
 40
232.7625458532268
 40
243.6660083346007
 40
243.6660083346007
 40
243.6660083346007
 40
260.5025455517534
 40
260.5025455517534
 40
277.3390827689062
 40
277.3390827689062
 40
287.4015119033668
 40
287.4015119033668
 40
299.8251113188825
 40
299.8251113188825
 40
315.6136794035851
 40
315.6136794035851
 40
331.4022427321145
 40
331.4022427321145
 40
333.0590287717325
 40
333.0590287717325
 40
333.0590287717325
 40
333.0590287717325
 10
3591.980545649884
 20
1773.252542665953
 30
0.000000000001819
 10
3594.015186493887
 20
1772.310191450322
 30
0.000000000001819
 10
3596.048686917542
 20
1771.299396195891
 30
0.000000000001819
 10
3604.77816457127
 20
1766.663025966751
 30
0.000000000001819
 10
3611.432120903175
 20
1762.371913077421
 30
0.000000000001819
 10
3622.349704154939
 20
1754.056315753421
 30
0.000000000003638
 10
3626.693753847947
 20
1750.390785903766
 30
0.0
 10
3636.270301310108
 20
1741.500967284121
 30
0.000000000005457
 10
3641.446028609247
 20
1736.117612610672
 30
0.000000000001819
 10
3653.218962113657
 20
1722.490898081554
 30
0.000000000001819
 10
3659.636340151744
 20
1713.923503533125
 30
0.000000000003638
 10
3669.773518462726
 20
1698.407109358013
 30
0.000000000001819
 10
3673.737401718926
 20
1691.706631922349
 30
0.000000000001819
 10
3681.413082413229
 20
1677.377407628668
 30
0.0
 10
3685.076348598979
 20
1669.71765243265
 30
0.000000000001819
 10
3690.83694080951
 20
1656.168659508424
 30
-0.000000000001819
 10
3693.095166460977
 20
1650.328287147448
 30
0.000000000001819
 10
3697.778108260898
 20
1636.932768407549
 30
0.000000000001819
 10
3700.064694572831
 20
1629.366324460872
 30
0.000000000001819
 10
3703.199873502294
 20
1617.111499956699
 30
0.0
 10
3704.268352527943
 20
1612.386077750237
 30
0.000000000001819
 10
3706.104908295334
 20
1603.029808460032
 30
0.000000000001819
 10
3706.872970916756
 20
1598.399005698273
 30
0.000000000005457
 10
3708.103497905118
 20
1589.277183528757
 30
0.000000000001819
 10
3708.565956761586
 20
1584.786208578375
 30
0.000000000001819
 10
3709.182182205569
 20
1575.987600181643
 30
0.000000000003638
 10
3709.335952916434
 20
1571.680000573032
 30
0.0
 10
3709.334891718734
 20
1567.484417310426
 30
0.000000000003638
 10
3709.333253074629
 20
1561.005824490105
 30
0.000000000001819
 10
3708.962149957706
 20
1554.794563229265
 30
-0.000000000001819
 10
3707.486724204446
 20
1543.04340081445
 30
0.000000000001819
 10
3706.382409648983
 20
1537.503783090137
 30
0.000000000001819
 10
3704.046512050987
 20
1529.283953044916
 30
0.000000000001819
 10
3703.04502374913
 20
1526.349820369351
 30
0.000000000003638
 10
3700.527938845417
 20
1520.13085197363
 30
0.000000000001819
 10
3698.946782499671
 20
1516.925306335506
 30
0.000000000001819
 10
3694.93849565816
 20
1510.207004795901
 30
0.000000000001819
 10
3692.398099315162
 20
1506.846517175586
 30
0.000000000001819
 10
3686.757216320246
 20
1500.977758219677
 30
0.000000000001819
 10
3683.656791399904
 20
1498.469482141336
 30
0.000000000005457
 10
3679.944728156416
 20
1496.188812411045
 30
0.000000000001819
 10
3679.589335503639
 20
1495.977110390912
 30
0.000000000001819
 10
3679.231114749635
 20
1495.770312934048
 30
0.000000000001819
  0
SPLINE
  5
6CB
330
1F
100
AcDbEntity
  8
Model
100
AcDbSpline
210
-0.0000000000000511
220
-0.0000000000000308
230
1.0
 70
     8
 71
     3
 72
    47
 73
    43
 74
     0
 42
0.000000001
 43
0.0000000001
 40
869.4206997801153
 40
869.4206997801153
 40
869.4206997801153
 40
869.4206997801153
 40
871.1208425276604
 40
871.1208425276604
 40
886.8876496026892
 40
886.8876496026892
 40
902.654461433892
 40
902.654461433892
 40
915.0805932700682
 40
915.0805932700682
 40
925.1406582572407
 40
925.1406582572407
 40
941.9771954526339
 40
941.9771954526339
 40
958.8137326480271
 40
958.8137326480271
 40
958.8137326480271
 40
969.7094452369006
 40
969.7094452369006
 40
980.6051578257736
 40
980.6051578257736
 40
991.5008680683486
 40
991.5008680683486
 40
1002.396578310923
 40
1002.396578310923
 40
1019.623106423202
 40
1019.623106423202
 40
1032.990788353502
 40
1032.990788353502
 40
1050.99460575342
 40
1050.99460575342
 40
1067.59959856548
 40
1067.59959856548
 40
1090.943847773088
 40
1090.943847773088
 40
1108.012056287064
 40
1108.012056287064
 40
1121.626209430964
 40
1121.626209430964
 40
1141.648129348137
 40
1141.648129348137
 40
1147.767983673032
 40
1147.767983673032
 40
1147.767983673032
 40
1147.767983673032
 10
3813.61232710519
 20
1573.355343773434
 30
-0.000000000001819
 10
3814.043338354613
 20
1573.604165871129
 30
0.0
 10
3814.471363993734
 20
1573.85814806919
 30
0.000000000001819
 10
3818.837530564273
 20
1576.520237520673
 30
0.0
 10
3822.517110118876
 20
1579.364328734185
 30
0.000000000001819
 10
3829.267505480679
 20
1585.873271227542
 30
0.000000000001819
 10
3832.338145115597
 20
1589.538060930916
 30
0.000000000001819
 10
3837.217583133142
 20
1596.756299273794
 30
0.000000000001819
 10
3839.155989424599
 20
1600.168633549309
 30
0.000000000001819
 10
3842.252639109516
 20
1606.722484137326
 30
-0.000000000001819
 10
3843.489221662369
 20
1609.791845608228
 30
0.000000000001819
 10
3846.380225891368
 20
1618.33156268198
 30
0.000000000001819
 10
3847.754264085828
 20
1624.026904943153
 30
0.0
 10
3849.589675445675
 20
1635.985903608093
 30
0.000000000001819
 10
3850.050989522554
 20
1642.249247144275
 30
0.0
 10
3850.049037328576
 20
1648.725766774364
 30
0.000000000003638
 10
3850.04777397233
 20
1652.917026274266
 30
0.000000000001819
 10
3849.852779306466
 20
1657.197557513804
 30
0.000000000001819
 10
3849.077751337173
 20
1665.89746170492
 30
0.0
 10
3848.497716562786
 20
1670.316802444238
 30
0.000000000001819
 10
3846.959956381322
 20
1679.253355634422
 30
0.000000000003638
 10
3846.00224502305
 20
1683.770528725142
 30
0.0
 10
3843.721250904291
 20
1692.861652702431
 30
0.000000000001819
 10
3842.397995540834
 20
1697.435567120435
 30
0.000000000003638
 10
3838.531827344041
 20
1709.262608193788
 30
0.000000000003638
 10
3835.726389995807
 20
1716.528405260431
 30
0.000000000001819
 10
3830.040929249892
 20
1729.33286126267
 30
0.000000000001819
 10
3827.318673169081
 20
1734.89377171112
 30
0.000000000003638
 10
3820.426697237206
 20
1747.782661491784
 30
0.000000000001819
 10
3816.082315242115
 20
1755.05426046765
 30
0.000000000001819
 10
3807.107880931615
 20
1768.637761825663
 30
0.000000000001819
 10
3802.526250671295
 20
1774.980589478451
 30
0.000000000001819
 10
3790.977014540561
 20
1789.675515372318
 30
0.000000000001819
 10
3783.795837295358
 20
1797.797139957603
 30
0.000000000001819
 10
3770.911281816205
 20
1810.782034491305
 30
0.000000000003638
 10
3765.329621692361
 20
1815.934910790637
 30
0.0
 10
3755.169168991786
 20
1824.503159828587
 30
0.000000000001819
 10
3750.616180075687
 20
1828.059099664778
 30
0.000000000001819
 10
3739.344875512129
 20
1836.174695479831
 30
0.000000000001819
 10
3732.61666677418
 20
1840.418108017884
 30
0.0
 10
3723.94743165137
 20
1845.105668766329
 30
0.000000000001819
 10
3721.92614851739
 20
1846.142131180532
 30
0.000000000003638
 10
3719.916010070743
 20
1847.116117488236
 30
0.000000000001819
  0
LINE
  5
6CC
330
1F
100
AcDbEntity
  8
Model
100
AcDbLine
 10
3712.399177016112
 20
1492.098365716074
 30
-0.000000000001819
 11
3711.518455154194
 21
1507.574446213649
 31
0.000000000001819
210
0.0000000000000026
220
0.8164965809277257
230
0.5773502691896263
  0
SPLINE
  5
6CD
330
1F
100
AcDbEntity
  8
Model
100
AcDbSpline
210
0.0
220
0.0
230
1.0
 70
     8
 71
     3
 72
    42
 73
    38
 74
     0
 42
0.000000001
 43
0.0000000001
 40
25.06108386669366
 40
25.06108386669366
 40
25.06108386669366
 40
25.06108386669366
 40
30.45684760574209
 40
30.45684760574209
 40
38.23913614307616
 40
38.23913614307616
 40
44.3378108500736
 40
44.3378108500736
 40
50.2815417117041
 40
50.2815417117041
 40
56.97173980475493
 40
56.97173980475493
 40
60.82705929501527
 40
60.82705929501527
 40
65.92282840411662
 40
65.92282840411662
 40
70.05038571874132
 40
70.05038571874132
 40
74.17794923544416
 40
74.17794923544416
 40
77.50957357231806
 40
77.50957357231806
 40
80.84119790919197
 40
80.84119790919197
 40
85.94066136921414
 40
85.94066136921414
 40
92.65532035418159
 40
92.65532035418159
 40
100.5830392962337
 40
100.5830392962337
 40
109.7605617389267
 40
109.7605617389267
 40
118.9380898491935
 40
118.9380898491935
 40
127.2292541974272
 40
127.2292541974272
 40
130.1814509595507
 40
130.1814509595507
 40
130.1814509595507
 40
130.1814509595507
 10
3773.33918423395
 20
1550.103607022913
 30
0.000000000001819
 10
3773.553514726933
 20
1550.227365549062
 30
0.0
 10
3773.711056763235
 20
1550.343476685257
 30
-0.000000000001819
 10
3773.955041838426
 20
1550.60149208133
 30
0.0
 10
3773.979375042098
 20
1550.732255079889
 30
0.000000000001819
 10
3773.79692568985
 20
1550.903706854948
 30
0.000000000001819
 10
3773.638950690435
 20
1550.957723947345
 30
0.000000000001819
 10
3773.161088152285
 20
1551.003862771635
 30
0.0
 10
3772.845432445816
 20
1550.997582813586
 30
0.000000000001819
 10
3771.986318729063
 20
1550.896451550049
 30
0.000000000001819
 10
3771.4193057111
 20
1550.790804543818
 30
0.000000000003638
 10
3770.32168217197
 20
1550.503455379225
 30
0.0
 10
3769.877339642543
 20
1550.372785544181
 30
0.000000000001819
 10
3768.737069394485
 20
1549.996297248004
 30
0.000000000001819
 10
3768.005934254399
 20
1549.726850384595
 30
0.0
 10
3766.521541917688
 20
1549.11329191495
 30
0.000000000001819
 10
3765.798715226913
 20
1548.792898020368
 30
-0.000000000001819
 10
3764.235971101392
 20
1548.048786080638
 30
0.000000000003638
 10
3763.395977615486
 20
1547.624893873798
 30
0.000000000001819
 10
3761.782336904661
 20
1546.763031285165
 30
0.000000000001819
 10
3761.027263211061
 20
1546.343621956563
 30
0.000000000001819
 10
3759.460334876849
 20
1545.440985150128
 30
0.000000000001819
 10
3758.648563765822
 20
1544.95780344909
 30
0.0
 10
3756.542022615918
 20
1543.66755926724
 30
0.0
 10
3755.220141683905
 20
1542.82487494739
 30
0.000000000001819
 10
3752.10914831043
 20
1540.784383713148
 30
0.000000000001819
 10
3750.305866647039
 20
1539.559992515396
 30
0.000000000001819
 10
3746.37485467708
 20
1536.848387559012
 30
-0.000000000001819
 10
3744.246807793351
 20
1535.354102456001
 30
0.0
 10
3739.701177526424
 20
1532.168663775927
 30
0.000000000003638
 10
3737.288862488668
 20
1530.48239409192
 30
0.0
 10
3732.52975230892
 20
1527.224684239399
 30
0.000000000001819
 10
3730.182309522785
 20
1525.652363095155
 30
0.000000000001819
 10
3725.77501552256
 20
1522.803725839012
 30
0.000000000005457
 10
3723.708848572818
 20
1521.512965365825
 30
0.000000000001819
 10
3720.944796548205
 20
1519.861214053163
 30
0.000000000005457
 10
3720.222622830708
 20
1519.436751991162
 30
0.0
 10
3719.504305944243
 20
1519.022035970367
 30
0.000000000001819
  0
SPLINE
  5
6CE
330
1F
100
AcDbEntity
  8
Model
100
AcDbSpline
210
0.0000000000002025
220
-0.0000000000003254
230
1.0
 70
     8
 71
     3
 72
    44
 73
    40
 74
     0
 42
0.000000001
 43
0.0000000001
 40
36.41414214806685
 40
36.41414214806685
 40
36.41414214806685
 40
36.41414214806685
 40
38.23913614307616
 40
38.23913614307616
 40
44.3378108500736
 40
44.3378108500736
 40
50.2815417117041
 40
50.2815417117041
 40
56.97173980475493
 40
56.97173980475493
 40
60.82705929501527
 40
60.82705929501527
 40
65.92282840411662
 40
65.92282840411662
 40
70.05038571874132
 40
70.05038571874132
 40
74.17794923544416
 40
74.17794923544416
 40
77.50957357231806
 40
77.50957357231806
 40
80.84119790919197
 40
80.84119790919197
 40
85.94066136921414
 40
85.94066136921414
 40
92.65532035418159
 40
92.65532035418159
 40
100.5830392962337
 40
100.5830392962337
 40
109.7605617389267
 40
109.7605617389267
 40
118.9380898491935
 40
118.9380898491935
 40
127.2292541974272
 40
127.2292541974272
 40
134.6517465441757
 40
134.6517465441757
 40
144.9475076569351
 40
144.9475076569351
 40
155.2432687696945
 40
155.2432687696945
 40
155.2432687696945
 40
155.2432687696945
 10
3769.266618677806
 20
1543.344154204204
 30
0.0
 10
3769.276442245561
 20
1543.435794970667
 30
0.000000000003638
 10
3769.280610976284
 20
1543.525752368579
 30
0.000000000001819
 10
3769.273785648891
 20
1543.90823833582
 30
0.000000000001819
 10
3769.204385965262
 20
1544.181815165938
 30
-0.000000000001819
 10
3768.929575148824
 20
1544.661674591253
 30
0.0
 10
3768.72768121503
 20
1544.869564173222
 30
-0.000000000001819
 10
3768.141244453961
 20
1545.222599190391
 30
0.000000000001819
 10
3767.737019591228
 20
1545.356860086114
 30
0.000000000005457
 10
3766.928191329336
 20
1545.444266792964
 30
0.000000000001819
 10
3766.596227693862
 20
1545.449870773602
 30
0.000000000001819
 10
3765.733608287563
 20
1545.386834858634
 30
0.0
 10
3765.173178587196
 20
1545.293663864815
 30
0.0
 10
3764.021639618195
 20
1544.991667636737
 30
0.000000000001819
 10
3763.456448979818
 20
1544.807973833816
 30
0.000000000001819
 10
3762.225545213328
 20
1544.32863324466
 30
0.0
 10
3761.559759053998
 20
1544.032780921956
 30
0.000000000005457
 10
3760.273547646455
 20
1543.391170184334
 30
0.000000000001819
 10
3759.669242066511
 20
1543.066108453995
 30
0.000000000001819
 10
3758.410678405873
 20
1542.342405864497
 30
-0.000000000001819
 10
3757.756488874837
 20
1541.943801326863
 30
0.000000000003638
 10
3756.054065950922
 20
1540.853796063154
 30
0.0
 10
3754.981430635411
 20
1540.119346450537
 30
0.000000000001819
 10
3752.449633584174
 20
1538.29916705107
 30
0.000000000001819
 10
3750.976703862021
 20
1537.177300598632
 30
0.0
 10
3747.759119350115
 20
1534.646624023838
 30
0.000000000003638
 10
3746.013054683592
 20
1533.223311337575
 30
-0.000000000001819
 10
3742.279582477269
 20
1530.145450193009
 30
0.000000000003638
 10
3740.295900006429
 20
1528.488742876937
 30
0.000000000001819
 10
3736.381821134186
 20
1525.245866118935
 30
0.000000000001819
 10
3734.450850263043
 20
1523.658745244549
 30
0.000000000001819
 10
3730.826679876833
 20
1520.745471291697
 30
0.0
 10
3729.12814647546
 20
1519.408319342151
 30
0.000000000001819
 10
3725.953905950437
 20
1516.98385699381
 30
0.000000000001819
 10
3724.473779273003
 20
1515.885177344156
 30
0.000000000001819
 10
3720.994743661957
 20
1513.393105484163
 30
-0.000000000001819
 10
3719.016358864376
 20
1512.050083656378
 30
0.0
 10
3715.172080885068
 20
1509.614128943182
 30
0.000000000001819
 10
3713.305845606035
 20
1508.521110046508
 30
0.000000000001819
 10
3711.518455154191
 20
1507.574446213647
 30
0.000000000001819
  0
ELLIPSE
  5
6CF
330
1F
100
AcDbEntity
  8
Model
100
AcDbEllipse
 10
3706.510563047093
 20
1501.890854322224
 30
0.0
 11
-3.214657798841183
 21
9.469211964908012
 31
0.0000000000000133
210
0.0000000000000024
220
-0.0000000000000006
230
0.9999999999999996
 40
0.7093129807457398
 41
5.099165230492071
 42
5.85335054455346
  0
ELLIPSE
  5
6D0
330
1F
100
AcDbEntity
  8
Model
100
AcDbEllipse
 10
3610.966868367857
 20
1644.644574230222
 30
0.000000000001819
 11
134.8823890249707
 21
-114.3053025171834
 31
-0.0000000000004024
210
0.0000000000000024
220
-0.0000000000000007
230
1.0
 40
0.6314632020702788
 41
5.761372100162183
 42
5.920950541060712
  0
ELLIPSE
  5
6D1
330
1F
100
AcDbEntity
  8
Model
100
AcDbEllipse
 10
3730.194489884901
 20
1509.766024756344
 30
0.000000000001819
 11
35.3993176203701
 21
-0.0000000000004384
 31
-0.0000000000000853
210
0.0000000000000024
220
-0.0000000000000006
230
1.0
 40
0.5773502691896187
 41
4.185667216957122
 42
6.221281951625848
  0
LINE
  5
6D2
330
1F
100
AcDbEntity
  8
Model
100
AcDbLine
 10
3712.399177016108
 20
1492.098365716074
 30
0.000000000003638
 11
3687.405528182249
 21
1500.489777385602
 31
0.000000000001819
210
0.0000000000000026
220
0.8164965809277257
230
0.5773502691896263
  0
ELLIPSE
  5
6D3
330
1F
100
AcDbEntity
  8
Model
100
AcDbEllipse
 10
3714.903123069657
 20
1494.940161661784
 30
-0.000000000001819
 11
-1.591409430745531
 21
-4.739980593181177
 31
0.0000000000000008
210
0.0000000000000024
220
-0.0000000000000006
230
1.0
 40
0.4104545819138782
 41
5.485261309482191
 42
6.283185307180064
  0
SPLINE
  5
6D4
330
1F
100
AcDbEntity
  8
Model
100
AcDbSpline
210
0.0000000000001579
220
-0.000000000001228
230
1.0
 70
     8
 71
     3
 72
    12
 73
     8
 74
     0
 42
0.000000001
 43
0.0000000001
 40
31.99545238020198
 40
31.99545238020198
 40
31.99545238020198
 40
31.99545238020198
 40
37.10963996176035
 40
37.10963996176035
 40
51.98495209653042
 40
51.98495209653042
 40
66.84181884800974
 40
66.84181884800974
 40
66.84181884800974
 40
66.84181884800974
 10
3742.306601792638
 20
1849.994730372533
 30
0.000000000001819
 10
3741.420530386005
 20
1850.418381639262
 30
0.000000000001819
 10
3740.489680012537
 20
1850.761987548139
 30
0.000000000001819
 10
3736.689790716664
 20
1851.782241955701
 30
0.000000000003638
 10
3733.552896490031
 20
1851.831829853227
 30
0.000000000005457
 10
3726.894750220056
 20
1850.504191559708
 30
0.000000000001819
 10
3723.416614814559
 20
1849.137192579405
 30
0.000000000001819
 10
3719.916010070743
 20
1847.116117488236
 30
0.000000000001819
  0
LINE
  5
6D5
330
1F
100
AcDbEntity
  8
Model
100
AcDbLine
 10
3719.916010070743
 20
1847.116117488236
 30
0.000000000001819
 11
3591.98054564988
 21
1773.25254266595
 31
0.000000000003638
210
0.0000000000000026
220
0.8164965809277257
230
0.5773502691896263
  0
SPLINE
  5
6D6
330
1F
100
AcDbEntity
  8
Model
100
AcDbSpline
210
0.0000000000002284
220
-0.0000000000001457
230
1.0
 70
     8
 71
     3
 72
    14
 73
    10
 74
     0
 42
0.000000001
 43
0.0000000001
 40
0.0
 40
0.0
 40
0.0
 40
0.0
 40
18.29831018103722
 40
18.29831018103722
 40
36.65190311427502
 40
36.65190311427502
 40
51.71109773970808
 40
51.71109773970808
 40
66.81777417306733
 40
66.81777417306733
 40
66.81777417306733
 40
66.81777417306733
 10
3591.980545649884
 20
1773.252542665953
 30
0.000000000001819
 10
3587.667592578793
 20
1770.762458049357
 30
0.000000000001819
 10
3583.396717130038
 20
1767.323524090107
 30
0.0
 10
3575.403493499398
 20
1758.923163013623
 30
0.000000000001819
 10
3571.761020607588
 20
1754.039473207335
 30
0.000000000003638
 10
3566.151273271934
 20
1744.415977420036
 30
0.000000000003638
 10
3564.037219630821
 20
1739.870495707319
 30
0.000000000001819
 10
3560.785310342842
 20
1730.689738329961
 30
0.000000000001819
 10
3559.671411828793
 20
1726.113240060855
 30
0.000000000001819
 10
3559.110174996827
 20
1721.727822746947
 30
0.000000000001819
  0
ELLIPSE
  5
6D7
330
1F
100
AcDbEntity
  8
Model
100
AcDbEllipse
 10
4092.918649034763
 20
1931.567393224535
 30
0.0
 11
382.2347126350568
 21
662.0499427004057
 31
-0.0000000000003819
210
0.0000000000000023
220
-0.0000000000000008
230
1.0
 40
0.577350269189626
 41
2.197962139859699
 42
2.513519564659269
  0
SPLINE
  5
6D8
330
1F
100
AcDbEntity
  8
Model
100
AcDbSpline
210
-0.0000000000004057
220
-0.0000000000001053
230
1.0
 70
     8
 71
     3
 72
    10
 73
     6
 74
     0
 42
0.000000001
 43
0.0000000001
 40
0.0
 40
0.0
 40
0.0
 40
0.0
 40
18.62699522468422
 40
18.62699522468422
 40
27.97538246621219
 40
27.97538246621219
 40
27.97538246621219
 40
27.97538246621219
 10
3559.03311491255
 20
1525.532815884602
 30
0.000000000001819
 10
3559.720992985834
 20
1520.922946814267
 30
0.000000000003638
 10
3561.247494686787
 20
1517.000104646528
 30
0.000000000001819
 10
3564.679745433867
 20
1512.481749750741
 30
0.0
 10
3566.006562732212
 20
1511.217069130002
 30
0.000000000005457
 10
3567.492200084121
 20
1510.213099819148
 30
0.000000000003638
  0
SPLINE
  5
6D9
330
1F
100
AcDbEntity
  8
Model
100
AcDbSpline
210
-0.0000000000000372
220
-0.0000000000001615
230
1.0
 70
     8
 71
     3
 72
    16
 73
    12
 74
     0
 42
0.000000001
 43
0.0000000001
 40
333.059028771732
 40
333.059028771732
 40
333.059028771732
 40
333.059028771732
 40
353.2708935503373
 40
353.2708935503373
 40
373.4827583289426
 40
373.4827583289426
 40
393.6946231075479
 40
393.6946231075479
 40
413.9064878861533
 40
413.9064878861533
 40
434.1183526647585
 40
434.1183526647585
 40
434.1183526647585
 40
434.1183526647585
 10
3679.231133474794
 20
1495.77028840079
 30
0.000000000003638
 10
3671.556681583101
 20
1491.339441535238
 30
-0.000000000001819
 10
3663.120820994663
 20
1488.307051072884
 30
0.000000000001819
 10
3646.39030706974
 20
1485.10700171651
 30
0.000000000001819
 10
3638.121194456291
 20
1484.885148883369
 30
0.0
 10
3622.39210962524
 20
1486.323621836729
 30
0.0
 10
3614.901465096965
 20
1487.966251458796
 30
0.000000000003638
 10
3600.541717574022
 20
1492.48242054881
 30
0.000000000003638
 10
3593.660219936327
 20
1495.362422168093
 30
0.000000000001819
 10
3580.298748417997
 20
1502.087960222127
 30
0.000000000001819
 10
3573.817275395691
 20
1505.93875195426
 30
0.000000000003638
 10
3567.492199867717
 20
1510.213099463817
 30
0.000000000001819
  0
SPLINE
  5
6DA
330
1F
100
AcDbEntity
  8
Model
100
AcDbSpline
210
0.0000000000000455
220
0.0000000000000117
230
1.0
 70
     8
 71
     3
 72
    22
 73
    18
 74
     0
 42
0.000000001
 43
0.0000000001
 40
869.4206997801229
 40
869.4206997801229
 40
869.4206997801229
 40
869.4206997801229
 40
896.7298968488961
 40
896.7298968488961
 40
925.3826370326494
 40
925.3826370326494
 40
957.857265508829
 40
957.857265508829
 40
995.4653572477278
 40
995.4653572477278
 40
1036.716111307974
 40
1036.716111307974
 40
1078.672577244982
 40
1078.672577244982
 40
1120.262592751928
 40
1120.262592751928
 40
1148.998932051618
 40
1148.998932051618
 40
1148.998932051618
 40
1148.998932051618
 10
3813.61234553421
 20
1573.355317357318
 30
0.000000000001819
 10
3823.720308885118
 20
1579.191152718929
 30
0.000000000003638
 10
3832.697075660635
 20
1586.945258331434
 30
0.0
 10
3847.602185121284
 20
1605.354986783475
 30
0.0
 10
3853.363855635257
 20
1616.090369531096
 30
0.0
 10
3861.663276692869
 20
1640.060557504275
 30
0.000000000001819
 10
3863.703125772963
 20
1653.426073750272
 30
-0.000000000001819
 10
3863.934892627332
 20
1682.189331688369
 30
0.000000000003638
 10
3861.488338419778
 20
1697.600507656627
 30
-0.000000000001819
 10
3852.371772722646
 20
1728.834238167518
 30
0.0
 10
3845.313633273674
 20
1744.572320162039
 30
0.000000000001819
 10
3827.930961106593
 20
1774.273123749439
 30
0.000000000003638
 10
3817.554936916881
 20
1788.206332979213
 30
0.000000000001819
 10
3794.941063130738
 20
1813.128492332877
 30
0.000000000001819
 10
3782.742407233036
 20
1824.145240882746
 30
0.000000000001819
 10
3761.05115624383
 20
1839.829650541433
 30
0.000000000003638
 10
3751.885927240664
 20
1845.414639276951
 30
0.000000000001819
 10
3742.306598091036
 20
1849.994723559129
 30
0.000000000001819
  0
LINE
  5
6DB
330
1F
100
AcDbEntity
  8
Model
100
AcDbLine
 10
3813.6123455342
 20
1573.355317357316
 30
0.000000000001819
 11
3773.339162245448
 21
1550.103584144431
 31
0.000000000001819
210
0.0000000000000026
220
0.8164965809277257
230
0.5773502691896263
  0
LINE
  5
6DC
330
1F
100
AcDbEntity
  8
Model
100
AcDbLine
 10
3719.504316763543
 20
1519.022021613672
 30
0.000000000001819
 11
3679.231133474792
 21
1495.770288400789
 31
0.000000000001819
210
0.0000000000000026
220
0.8164965809277257
230
0.5773502691896263
  0
LINE
  5
6DD
330
1F
100
AcDbEntity
  8
Model
100
AcDbLine
 10
3765.526003618963
 20
1508.501663883855
 30
0.000000000003638
 11
3769.266581411539
 21
1543.344109720167
 31
0.0
210
0.0000000000000026
220
0.8164965809277257
230
0.5773502691896263
  0
SPLINE
  5
6DE
330
1F
100
AcDbEntity
  8
Model
100
AcDbSpline
210
0.0000000000006083
220
-0.0000000000006356
230
1.0
 70
     8
 71
     3
 72
    18
 73
    14
 74
     0
 42
0.000000001
 43
0.0000000001
 40
25.06108386669367
 40
25.06108386669367
 40
25.06108386669367
 40
25.06108386669367
 40
27.33169552296912
 40
27.33169552296912
 40
29.60230717924457
 40
29.60230717924457
 40
31.87291883552003
 40
31.87291883552003
 40
34.14353049179548
 40
34.14353049179548
 40
36.21716131537435
 40
36.21716131537435
 40
36.41414214807093
 40
36.41414214807093
 40
36.41414214807093
 40
36.41414214807093
 10
3773.339162245445
 20
1550.103584144432
 30
0.0
 10
3773.263461591041
 20
1550.059878351234
 30
0.000000000001819
 10
3773.15679675325
 20
1549.995701034524
 30
0.0
 10
3772.862973599221
 20
1549.795600743114
 30
0.000000000003638
 10
3772.675732682411
 20
1549.660644017994
 30
0.000000000001819
 10
3772.194998510071
 20
1549.255869271854
 30
0.000000000003638
 10
3771.900120181732
 20
1548.988268353825
 30
0.0
 10
3771.186257127358
 20
1548.176893476362
 30
0.000000000001819
 10
3770.758992037505
 20
1547.634189156681
 30
0.0
 10
3769.923559763616
 20
1546.054381545535
 30
0.000000000001819
 10
3769.509782792675
 20
1545.042559424046
 30
0.000000000001819
 10
3769.296862832256
 20
1543.601474528852
 30
0.000000000001819
 10
3769.280521839859
 20
1543.473960947883
 30
0.000000000003638
 10
3769.266581411539
 20
1543.344109720165
 30
-0.000000000001819
  0
SPLINE
  5
6DF
330
1F
100
AcDbEntity
  8
Model
100
AcDbSpline
210
0.0000000000000511
220
-0.0000000000000465
230
1.0
 70
     8
 71
     3
 72
    20
 73
    16
 74
     0
 42
0.000000001
 43
0.0000000001
 40
3.400269053559703
 40
3.400269053559703
 40
3.400269053559703
 40
3.400269053559703
 40
3.743617579625936
 40
3.743617579625936
 40
4.083509124260508
 40
4.083509124260508
 40
4.423243368415132
 40
4.423243368415132
 40
4.766257871163929
 40
4.766257871163929
 40
5.107985825786946
 40
5.107985825786946
 40
5.411895469054128
 40
5.411895469054128
 40
5.435883788228315
 40
5.435883788228315
 40
5.435883788228315
 40
5.435883788228315
 10
3713.311713638915
 20
1490.200181068604
 30
0.000000000003638
 10
3716.697876410486
 20
1489.063304817153
 30
0.000000000001819
 10
3720.35650970011
 20
1488.285140970113
 30
0.000000000001819
 10
3727.836569530629
 20
1487.484225320852
 30
0.000000000001819
 10
3731.654518901454
 20
1487.454776942263
 30
0.000000000001819
 10
3739.123309628578
 20
1488.135266812492
 30
0.000000000001819
 10
3742.772746270299
 20
1488.844151900021
 30
0.000000000003638
 10
3749.599071793318
 20
1490.978090678651
 30
0.000000000001819
 10
3752.771719700677
 20
1492.407631860072
 30
0.000000000001819
 10
3758.288129849607
 20
1495.955574806884
 30
0.000000000005457
 10
3760.644430593321
 20
1498.075265849078
 30
0.000000000001819
 10
3763.970524546316
 20
1502.749596954005
 30
0.000000000001819
 10
3765.054128156513
 20
1505.250074652296
 30
0.000000000001819
 10
3765.476938061997
 20
1508.085143617013
 30
0.000000000001819
 10
3765.503620922898
 20
1508.293175270984
 30
-0.000000000001819
 10
3765.526003618963
 20
1508.501663883855
 30
0.000000000001819
  0
LINE
  5
6E0
330
1F
100
AcDbEntity
  8
Model
100
AcDbLine
 10
3685.662212128091
 20
1499.483273392448
 30
0.000000000001819
 11
3713.311713638915
 21
1490.200181068602
 31
0.000000000001819
210
0.0000000000000026
220
0.8164965809277257
230
0.5773502691896263
  0
SPLINE
  5
6E1
330
1F
100
AcDbEntity
  8
Model
100
AcDbSpline
210
0.0
220
0.0
230
1.0
 70
     8
 71
     3
 72
    55
 73
    51
 74
     0
 42
0.000000001
 43
0.0000000001
 40
64.88195883029433
 40
64.88195883029433
 40
64.88195883029433
 40
64.88195883029433
 40
80.8216503141841
 40
80.8216503141841
 40
94.4149104345109
 40
94.4149104345109
 40
111.479138567626
 40
111.479138567626
 40
134.8352296402342
 40
134.8352296402342
 40
151.4426570108721
 40
151.4426570108721
 40
169.4367712103806
 40
169.4367712103806
 40
182.8250989107135
 40
182.8250989107135
 40
200.0521631017022
 40
200.0521631017022
 40
210.9556232367776
 40
210.9556232367776
 40
221.8590833718529
 40
221.8590833718529
 40
232.7625458532268
 40
232.7625458532268
 40
243.6660083346007
 40
243.6660083346007
 40
243.6660083346007
 40
260.5025455517534
 40
260.5025455517534
 40
277.3390827689062
 40
277.3390827689062
 40
287.4015119033668
 40
287.4015119033668
 40
299.8251113188825
 40
299.8251113188825
 40
315.6136794035851
 40
315.6136794035851
 40
331.4022427321145
 40
331.4022427321145
 40
350.7267289089652
 40
350.7267289089652
 40
363.3463826290213
 40
363.3463826290213
 40
384.5692906975762
 40
384.5692906975762
 40
401.2704474311209
 40
401.2704474311209
 40
420.2156100220793
 40
420.2156100220793
 40
422.4509351616893
 40
422.4509351616893
 40
422.4509351616893
 40
422.4509351616893
 10
2791.090298090612
 20
2039.846302861211
 30
0.0
 10
2791.090133947082
 20
2039.846039016646
 30
0.0
 10
2791.02607761706
 20
2039.44871353106
 30
0.0
 10
2790.792580185718
 20
2037.982657602756
 30
0.0
 10
2790.640320587876
 20
2037.02180498977
 30
0.0
 10
2790.206012457561
 20
2034.22644931456
 30
0.0
 10
2789.900650943803
 20
2032.23133478036
 30
0.0
 10
2789.059580784257
 20
2026.521419651606
 30
0.0
 10
2788.480189217911
 20
2022.442534040679
 30
0.0
 10
2787.411055218175
 20
2014.277607977732
 30
0.0
 10
2786.94413608948
 20
2010.534945508486
 30
0.0
 10
2785.964830073239
 20
2002.090472123531
 30
0.0
 10
2785.452016911369
 20
1997.334469831988
 30
0.0
 10
2784.594828946773
 20
1988.503164551116
 30
0.0
 10
2784.240961453326
 20
1984.565446680216
 30
0.0
 10
2783.480733521983
 20
1975.232851241601
 30
0.0
 10
2783.088606547675
 20
1969.743852553548
 30
0.0
 10
2782.535068776657
 20
1960.493148728264
 30
0.0
 10
2782.341729522612
 20
1956.837032918742
 30
0.0
 10
2782.004479259167
 20
1949.417031031753
 30
0.0
 10
2781.860578334806
 20
1945.653171210678
 30
0.0
 10
2781.627466710162
 20
1938.052924436799
 30
0.0
 10
2781.53826248272
 20
1934.216571009745
 30
0.0
 10
2781.417788383269
 20
1926.507604657293
 30
0.0
 10
2781.386520500952
 20
1922.635023760146
 30
0.0
 10
2781.384768431142
 20
1918.762448583076
 30
0.0
 10
2781.382062979674
 20
1912.782627383495
 30
0.0
 10
2781.450030464911
 20
1906.80268120665
 30
0.0
 10
2781.721254022048
 20
1894.976062031576
 30
0.0
 10
2781.924471631754
 20
1889.129682204139
 30
0.0
 10
2782.342896291581
 20
1880.000333306127
 30
0.0
 10
2782.520269460694
 20
1876.632355635381
 30
0.0
 10
2782.957030207299
 20
1869.240604919809
 30
0.0
 10
2783.225922908156
 20
1865.248363207479
 30
0.0
 10
2783.884770085582
 20
1856.443730104985
 30
0.0
 10
2784.287815066523
 20
1851.702278083101
 30
0.0
 10
2785.132029099614
 20
1842.680622266989
 30
0.0
 10
2785.573111088457
 20
1838.400508587758
 30
0.0
 10
2786.559254403315
 20
1829.48291196873
 30
0.0
 10
2787.105365000785
 20
1824.98006387286
 30
0.0
 10
2787.962705858865
 20
1818.310786015814
 30
0.0
 10
2788.289676339142
 20
1815.87562247921
 30
0.0
 10
2789.113494144362
 20
1809.920743431106
 30
0.0
 10
2789.573591212347
 20
1806.794569320938
 30
0.0
 10
2790.237724635276
 20
1802.394111706897
 30
0.0
 10
2790.47552361492
 20
1800.8669218554
 30
0.0
 10
2790.843935353771
 20
1798.52195211605
 30
0.0
 10
2790.955590268897
 20
1797.827455709501
 30
0.0
 10
2790.979252074599
 20
1797.679497257347
 30
0.0
 10
2790.980492088113
 20
1797.671703776127
 30
0.0
 10
2790.980480354751
 20
1797.671723131998
 30
0.0
  0
SPLINE
  5
6E2
330
1F
100
AcDbEntity
  8
Model
100
AcDbSpline
210
0.0
220
0.0
230
1.0
 70
     8
 71
     3
 72
    55
 73
    51
 74
     0
 42
0.000000001
 43
0.0000000001
 40
780.0288082442952
 40
780.0288082442952
 40
780.0288082442952
 40
780.0288082442952
 40
782.2469610032103
 40
782.2469610032103
 40
801.2479214201944
 40
801.2479214201944
 40
817.9520458433319
 40
817.9520458433319
 40
839.1663227468542
 40
839.1663227468542
 40
851.7914808806345
 40
851.7914808806345
 40
871.1208425276604
 40
871.1208425276604
 40
886.8876496026892
 40
886.8876496026892
 40
902.654461433892
 40
902.654461433892
 40
915.0805932700682
 40
915.0805932700682
 40
925.1406582572407
 40
925.1406582572407
 40
941.9771954526339
 40
941.9771954526339
 40
958.8137326480271
 40
958.8137326480271
 40
958.8137326480271
 40
969.7094452369006
 40
969.7094452369006
 40
980.6051578257736
 40
980.6051578257736
 40
991.5008680683486
 40
991.5008680683486
 40
1002.396578310923
 40
1002.396578310923
 40
1019.623106423202
 40
1019.623106423202
 40
1032.990788353502
 40
1032.990788353502
 40
1050.99460575342
 40
1050.99460575342
 40
1067.59959856548
 40
1067.59959856548
 40
1090.943847773088
 40
1090.943847773088
 40
1108.012056287064
 40
1108.012056287064
 40
1121.626209430964
 40
1121.626209430964
 40
1137.597780332901
 40
1137.597780332901
 40
1137.597780332901
 40
1137.597780332901
 10
3064.788899706537
 20
1797.671722604284
 30
0.0
 10
3064.78888813684
 20
1797.671703519815
 30
0.0
 10
3064.790109185166
 20
1797.679377740366
 30
0.0
 10
3064.813632129912
 20
1797.826467440074
 30
0.0
 10
3064.925726360563
 20
1798.523660558146
 30
0.0
 10
3065.295385763589
 20
1800.876726843041
 30
0.0
 10
3065.533520147941
 20
1802.406213881329
 30
0.0
 10
3066.198168023019
 20
1806.810652324946
 30
0.0
 10
3066.658331638349
 20
1809.93778871416
 30
0.0
 10
3067.482349269357
 20
1815.895121127825
 30
0.0
 10
3067.809553936039
 20
1818.332525153341
 30
0.0
 10
3068.667353506184
 20
1825.007049241625
 30
0.0
 10
3069.213657542905
 20
1829.512899542174
 30
0.0
 10
3070.199298545596
 20
1838.429502753229
 30
0.0
 10
3070.639716765169
 20
1842.704722176059
 30
0.0
 10
3071.48266383034
 20
1851.715200911933
 30
0.0
 10
3071.885106207379
 20
1856.450370650512
 30
0.0
 10
3072.543505647622
 20
1865.248996502484
 30
0.0
 10
3072.812449444568
 20
1869.242072761904
 30
0.0
 10
3073.249194496387
 20
1876.633942009024
 30
0.0
 10
3073.426521054151
 20
1880.001139469839
 30
0.0
 10
3073.844908873392
 20
1889.129685509123
 30
0.0
 10
3074.048126428245
 20
1894.976064533463
 30
0.0
 10
3074.319349918481
 20
1906.802681854204
 30
0.0
 10
3074.387317398449
 20
1912.782627030214
 30
0.0
 10
3074.384611949748
 20
1918.762448229793
 30
0.0
 10
3074.382861127046
 20
1922.632270887939
 30
0.0
 10
3074.351636559141
 20
1926.502099625743
 30
0.0
 10
3074.231330131988
 20
1934.205638396061
 30
0.0
 10
3074.142250254847
 20
1938.039316504886
 30
0.0
 10
3073.909459284469
 20
1945.63436585629
 30
0.0
 10
3073.765754637856
 20
1949.395703690068
 30
0.0
 10
3073.428954280988
 20
1956.81088816099
 30
0.0
 10
3073.235868615078
 20
1960.464708628173
 30
0.0
 10
3072.682804184829
 20
1969.7137199886
 30
0.0
 10
3072.290853247012
 20
1975.203301761824
 30
0.0
 10
3071.531381171912
 20
1984.530981892731
 30
0.0
 10
3071.178171656715
 20
1988.463586896835
 30
0.0
 10
3070.321498122324
 20
1997.294911256975
 30
0.0
 10
3069.808449746388
 20
2002.055268108765
 30
0.0
 10
3068.828905303251
 20
2010.504822963179
 30
0.0
 10
3068.361987450086
 20
2014.248677394087
 30
0.0
 10
3067.292942241385
 20
2022.415230127009
 30
0.0
 10
3066.713546961489
 20
2026.49524783629
 30
0.0
 10
3065.871863712875
 20
2032.2105867904
 30
0.0
 10
3065.566060128201
 20
2034.208923886648
 30
0.0
 10
3065.130696730694
 20
2037.011424973241
 30
0.0
 10
3064.977931670061
 20
2037.975525892181
 30
0.0
 10
3064.74356195401
 20
2039.447118256441
 30
0.0
 10
3064.679244451769
 20
2039.846042181027
 30
0.0
 10
3064.679080545563
 20
2039.84630565437
 30
0.0
  0
SPLINE
  5
6E3
330
1F
100
AcDbEntity
  8
Model
100
AcDbSpline
210
0.0
220
0.0
230
1.0
 70
     8
 71
     3
 72
    55
 73
    51
 74
     0
 42
0.000000001
 43
0.0000000001
 40
64.88195883028635
 40
64.88195883028635
 40
64.88195883028635
 40
64.88195883028635
 40
80.8216503141841
 40
80.8216503141841
 40
94.4149104345109
 40
94.4149104345109
 40
111.479138567626
 40
111.479138567626
 40
134.8352296402342
 40
134.8352296402342
 40
151.4426570108721
 40
151.4426570108721
 40
169.4367712103806
 40
169.4367712103806
 40
182.8250989107135
 40
182.8250989107135
 40
200.0521631017022
 40
200.0521631017022
 40
210.9556232367776
 40
210.9556232367776
 40
221.8590833718529
 40
221.8590833718529
 40
232.7625458532268
 40
232.7625458532268
 40
243.6660083346007
 40
243.6660083346007
 40
243.6660083346007
 40
260.5025455517534
 40
260.5025455517534
 40
277.3390827689062
 40
277.3390827689062
 40
287.4015119033668
 40
287.4015119033668
 40
299.8251113188825
 40
299.8251113188825
 40
315.6136794035851
 40
315.6136794035851
 40
331.4022427321145
 40
331.4022427321145
 40
350.7267289089652
 40
350.7267289089652
 40
363.3463826290213
 40
363.3463826290213
 40
384.5692906975762
 40
384.5692906975762
 40
401.2704474311209
 40
401.2704474311209
 40
420.2156100220793
 40
420.2156100220793
 40
422.4509351616895
 40
422.4509351616895
 40
422.4509351616895
 40
422.4509351616895
 10
2837.493591988011
 20
2079.380683656942
 30
0.0
 10
2837.493437936114
 20
2079.380333622559
 30
0.0
 10
2837.433319824433
 20
2078.85321425134
 30
0.0
 10
2837.214177943371
 20
2076.908243422305
 30
0.0
 10
2837.071279349208
 20
2075.633510127905
 30
0.0
 10
2836.663672721197
 20
2071.92499864475
 30
0.0
 10
2836.377085000962
 20
2069.27814220859
 30
0.0
 10
2835.587724296618
 20
2061.702975294908
 30
0.0
 10
2835.043954041894
 20
2056.291644543424
 30
0.0
 10
2834.040550987471
 20
2045.459490935181
 30
0.0
 10
2833.60233830317
 20
2040.494216974568
 30
0.0
 10
2832.683240558499
 20
2029.291196623696
 30
0.0
 10
2832.201955431383
 20
2022.981556219611
 30
0.0
 10
2831.397467853492
 20
2011.265338016752
 30
0.0
 10
2831.065356327834
 20
2006.041290117888
 30
0.0
 10
2830.351867627118
 20
1993.660025844911
 30
0.0
 10
2829.983848834485
 20
1986.377941906116
 30
0.0
 10
2829.464342869551
 20
1974.105320691015
 30
0.0
 10
2829.282890219
 20
1969.254865493633
 30
0.0
 10
2828.966374286918
 20
1959.410979634327
 30
0.0
 10
2828.831320470397
 20
1954.417583805943
 30
0.0
 10
2828.612540676428
 20
1944.334572657954
 30
0.0
 10
2828.528820773865
 20
1939.245001815915
 30
0.0
 10
2828.415753488199
 20
1929.017755782484
 30
0.0
 10
2828.386407972454
 20
1923.880123081973
 30
0.0
 10
2828.384763620854
 20
1918.742497970112
 30
0.0
 10
2828.382224502029
 20
1910.809255062053
 30
0.0
 10
2828.446013308954
 20
1902.875846350546
 30
0.0
 10
2828.700561892884
 20
1887.185838310918
 30
0.0
 10
2828.89128557237
 20
1879.429627923377
 30
0.0
 10
2829.283985254371
 20
1867.318004518079
 30
0.0
 10
2829.450453423657
 20
1862.849813232893
 30
0.0
 10
2829.860361879759
 20
1853.043407324545
 30
0.0
 10
2830.112722909728
 20
1847.74702434008
 30
0.0
 10
2830.731063800946
 20
1836.066191287194
 30
0.0
 10
2831.109329355167
 20
1829.775854273582
 30
0.0
 10
2831.901640645984
 20
1817.807103932497
 30
0.0
 10
2832.315604671976
 20
1812.12881015779
 30
0.0
 10
2833.241119354394
 20
1800.29811191889
 30
0.0
 10
2833.753654772483
 20
1794.324323317129
 30
0.0
 10
2834.558285843885
 20
1785.47639969276
 30
0.0
 10
2834.865153999514
 20
1782.245743923641
 30
0.0
 10
2835.638323033743
 20
1774.345590992643
 30
0.0
 10
2836.07013308137
 20
1770.198192975026
 30
0.0
 10
2836.693435216816
 20
1764.360242642792
 30
0.0
 10
2836.916614184623
 20
1762.334167338149
 30
0.0
 10
2837.262375767497
 20
1759.223168876254
 30
0.0
 10
2837.367166077135
 20
1758.301802081488
 30
0.0
 10
2837.38937314203
 20
1758.105510202172
 30
0.0
 10
2837.390540770588
 20
1758.095161809892
 30
0.0
 10
2837.390535684283
 20
1758.095173596689
 30
0.0
  0
SPLINE
  5
6E4
330
1F
100
AcDbEntity
  8
Model
100
AcDbSpline
210
0.0
220
0.0
230
1.0
 70
     8
 71
     3
 72
    55
 73
    51
 74
     0
 42
0.000000001
 43
0.0000000001
 40
780.0288082442875
 40
780.0288082442875
 40
780.0288082442875
 40
780.0288082442875
 40
782.2469610032103
 40
782.2469610032103
 40
801.2479214201944
 40
801.2479214201944
 40
817.9520458433319
 40
817.9520458433319
 40
839.1663227468542
 40
839.1663227468542
 40
851.7914808806345
 40
851.7914808806345
 40
871.1208425276604
 40
871.1208425276604
 40
886.8876496026892
 40
886.8876496026892
 40
902.654461433892
 40
902.654461433892
 40
915.0805932700682
 40
915.0805932700682
 40
925.1406582572407
 40
925.1406582572407
 40
941.9771954526339
 40
941.9771954526339
 40
958.8137326480271
 40
958.8137326480271
 40
958.8137326480271
 40
969.7094452369006
 40
969.7094452369006
 40
980.6051578257736
 40
980.6051578257736
 40
991.5008680683486
 40
991.5008680683486
 40
1002.396578310923
 40
1002.396578310923
 40
1019.623106423202
 40
1019.623106423202
 40
1032.990788353502
 40
1032.990788353502
 40
1050.99460575342
 40
1050.99460575342
 40
1067.59959856548
 40
1067.59959856548
 40
1090.943847773088
 40
1090.943847773088
 40
1108.012056287064
 40
1108.012056287064
 40
1121.626209430964
 40
1121.626209430964
 40
1137.597780332902
 40
1137.597780332902
 40
1137.597780332902
 40
1137.597780332902
 10
3018.378844546636
 20
1758.095173249382
 30
0.0
 10
3018.378839527511
 20
1758.095161619231
 30
0.0
 10
3018.379989293297
 20
1758.105351642708
 30
0.0
 10
3018.402066034489
 20
1758.300490975159
 30
0.0
 10
3018.507268650296
 20
1759.225435413278
 30
0.0
 10
3018.854201190259
 20
1762.347175310473
 30
0.0
 10
3019.077694941914
 20
1764.376298221425
 30
0.0
 10
3019.701479900703
 20
1770.219529796518
 30
0.0
 10
3020.133352404311
 20
1774.368204439834
 30
0.0
 10
3020.906708978933
 20
1782.27161217466
 30
0.0
 10
3021.213796923055
 20
1785.505240330775
 30
0.0
 10
3022.018858504651
 20
1794.360123967054
 30
0.0
 10
3022.531575469244
 20
1800.337895500441
 30
0.0
 10
3023.456618721919
 20
1812.167275815863
 30
0.0
 10
3023.86995978754
 20
1817.839076532736
 30
0.0
 10
3024.661082004323
 20
1829.792998588898
 30
0.0
 10
3025.038782003058
 20
1836.075001092529
 30
0.0
 10
3025.656702684219
 20
1847.747864512878
 30
0.0
 10
3025.909111668863
 20
1853.045354665026
 30
0.0
 10
3026.319005395099
 20
1862.851917825494
 30
0.0
 10
3026.485429818729
 20
1867.319074030418
 30
0.0
 10
3026.878094925125
 20
1879.429632307997
 30
0.0
 10
3027.068818553134
 20
1887.185841630094
 30
0.0
 10
3027.323367074269
 20
1902.875847209635
 30
0.0
 10
3027.387155876257
 20
1910.809254593367
 30
0.0
 10
3027.384616760022
 20
1918.742497501423
 30
0.0
 10
3027.382973578863
 20
1923.876470931989
 30
0.0
 10
3027.353668714537
 20
1929.010452428245
 30
0.0
 10
3027.240758792579
 20
1939.230497857173
 30
0.0
 10
3027.157155595194
 20
1944.316519437675
 30
0.0
 10
3026.938676741492
 20
1954.392635326825
 30
0.0
 10
3026.803807135455
 20
1959.382685313055
 30
0.0
 10
3026.487713449447
 20
1969.22018005621
 30
0.0
 10
3026.306498796292
 20
1974.06759009426
 30
0.0
 10
3025.787437070876
 20
1986.337965968843
 30
0.0
 10
3025.419583491917
 20
1993.62082346861
 30
0.0
 10
3024.706804176985
 20
2005.995566755638
 30
0.0
 10
3024.375310176709
 20
2011.212831573054
 30
0.0
 10
3023.571305401575
 20
2022.929075087784
 30
0.0
 10
3023.089799521482
 20
2029.244492551592
 30
0.0
 10
3022.170478008533
 20
2040.454254330041
 30
0.0
 10
3021.732266521345
 20
2045.421109629141
 30
0.0
 10
3020.728946799037
 20
2056.255421289876
 30
0.0
 10
3020.185173059066
 20
2061.668253961056
 30
0.0
 10
3019.395236958708
 20
2069.250616495242
 30
0.0
 10
3019.108234346322
 20
2071.901748204302
 30
0.0
 10
3018.699637329528
 20
2075.619739282631
 30
0.0
 10
3018.556264348701
 20
2076.898782003568
 30
0.0
 10
3018.336303811475
 20
2078.851097850092
 30
0.0
 10
3018.275940584585
 20
2079.380337820644
 30
0.0
 10
3018.275786755423
 20
2079.380687362538
 30
0.0
  0
LINE
  5
6E5
330
1F
100
AcDbEntity
  8
Model
100
AcDbLine
 10
2893.663128988437
 20
1763.302229451147
 30
0.0
 11
2891.969442717129
 21
1783.327401540202
 31
0.0
210
0.0
220
1.0
230
0.0
  0
LINE
  5
6E6
330
1F
100
AcDbEntity
  8
Model
100
AcDbLine
 10
2962.106251392286
 20
1763.302229451146
 30
0.0
 11
2963.799937663602
 21
1783.32740154032
 31
0.0
210
0.0
220
1.0
230
0.0
  0
SPLINE
  5
6E7
330
1F
100
AcDbEntity
  8
Model
100
AcDbSpline
210
0.0
220
0.0
230
1.0
 70
     8
 71
     3
 72
    52
 73
    48
 74
     0
 42
0.000000001
 43
0.0000000001
 40
0.0
 40
0.0
 40
0.0
 40
0.0
 40
3.650298958173384
 40
3.650298958173384
 40
13.47738376742731
 40
13.47738376742731
 40
23.34594721812251
 40
23.34594721812251
 40
30.45684760574209
 40
30.45684760574209
 40
38.23913614307616
 40
38.23913614307616
 40
44.3378108500736
 40
44.3378108500736
 40
50.2815417117041
 40
50.2815417117041
 40
56.97173980475493
 40
56.97173980475493
 40
60.82705929501527
 40
60.82705929501527
 40
65.92282840411662
 40
65.92282840411662
 40
70.05038571874132
 40
70.05038571874132
 40
74.17794923544416
 40
74.17794923544416
 40
77.50957357231806
 40
77.50957357231806
 40
80.84119790919197
 40
80.84119790919197
 40
85.94066136921414
 40
85.94066136921414
 40
92.65532035418159
 40
92.65532035418159
 40
100.5830392962337
 40
100.5830392962337
 40
109.7605617389267
 40
109.7605617389267
 40
118.9380898491935
 40
118.9380898491935
 40
127.2292541974272
 40
127.2292541974272
 40
134.6517465441757
 40
134.6517465441757
 40
144.9475076569351
 40
144.9475076569351
 40
155.2432687696945
 40
155.2432687696945
 40
155.2432687696945
 40
155.2432687696945
 10
2973.430444724569
 20
1790.442241336486
 30
0.0
 10
2973.241887979597
 20
1791.123263436253
 30
0.0
 10
2973.025560261273
 20
1791.811404818529
 30
0.0
 10
2972.128741917101
 20
1794.374540213773
 30
0.0
 10
2971.282810215891
 20
1796.287478177052
 30
0.0
 10
2969.239482798619
 20
1800.171102662323
 30
0.0
 10
2968.040752957352
 20
1802.142142622001
 30
0.0
 10
2965.695117119887
 20
1805.539443329205
 30
0.0
 10
2964.627114142795
 20
1806.964108960688
 30
0.0
 10
2962.211978785943
 20
1809.931353067525
 30
0.0
 10
2960.848253708349
 20
1811.472435630297
 30
0.0
 10
2958.227699780104
 20
1814.173963066536
 30
0.0
 10
2957.011411346341
 20
1815.344703463835
 30
0.0
 10
2954.472795468478
 20
1817.601927788922
 30
0.0
 10
2953.153899204654
 20
1818.689930415769
 30
0.0
 10
2950.198377071667
 20
1820.914107417476
 30
0.0
 10
2948.542494389634
 20
1822.039660720426
 30
0.0
 10
2945.775212115119
 20
1823.678876531594
 30
0.0
 10
2944.730386272351
 20
1824.249467548324
 30
0.0
 10
2942.225471771696
 20
1825.486987114311
 30
0.0
 10
2940.739482776625
 20
1826.125981829788
 30
0.0
 10
2937.94669091526
 20
1827.117697214926
 30
0.0
 10
2936.659390077201
 20
1827.501481619102
 30
0.0
 10
2934.025027763384
 20
1828.119469682578
 30
0.0
 10
2932.678044327417
 20
1828.353328222161
 30
0.0
 10
2930.215278407892
 20
1828.619516067389
 30
0.0
 10
2929.105181112633
 20
1828.682026209386
 30
0.0
 10
2926.884001061861
 20
1828.689720809995
 30
0.0
 10
2925.773041034488
 20
1828.634897669692
 30
0.0
 10
2922.985486933196
 20
1828.352682294475
 30
0.0
 10
2921.322632163463
 20
1828.048752794323
 30
0.0
 10
2917.58469195066
 20
1827.087807322256
 30
0.0
 10
2915.546562667818
 20
1826.351257072501
 30
0.0
 10
2911.331557015308
 20
1824.465593240557
 30
0.0
 10
2909.194357997278
 20
1823.26791786011
 30
0.0
 10
2904.879436481291
 20
1820.467243703032
 30
0.0
 10
2902.746022475034
 20
1818.829643240464
 30
0.0
 10
2898.798172791618
 20
1815.42243040901
 30
0.0
 10
2896.983434766329
 20
1813.65158346418
 30
0.0
 10
2893.80415650481
 20
1810.225580381542
 30
0.0
 10
2892.413058543405
 20
1808.574825411989
 30
0.0
 10
2889.994398032645
 20
1805.434619302383
 30
0.0
 10
2888.944381050811
 20
1803.946455514104
 30
0.0
 10
2886.663547477258
 20
1800.408064445243
 30
0.0
 10
2885.519583668907
 20
1798.363114608649
 30
0.0
 10
2883.623111326894
 20
1794.340851405208
 30
0.0
 10
2882.870764754132
 20
1792.363081500988
 30
0.0
 10
2882.338935656122
 20
1790.442241336376
 30
0.0
  0
SPLINE
  5
6E8
330
1F
100
AcDbEntity
  8
Model
100
AcDbSpline
210
0.0
220
0.0
230
1.0
 70
     8
 71
     3
 72
    52
 73
    48
 74
     0
 42
0.000000001
 43
0.0000000001
 40
0.0
 40
0.0
 40
0.0
 40
0.0
 40
3.650298958173384
 40
3.650298958173384
 40
13.47738376742731
 40
13.47738376742731
 40
23.34594721812251
 40
23.34594721812251
 40
30.45684760574209
 40
30.45684760574209
 40
38.23913614307616
 40
38.23913614307616
 40
44.3378108500736
 40
44.3378108500736
 40
50.2815417117041
 40
50.2815417117041
 40
56.97173980475493
 40
56.97173980475493
 40
60.82705929501527
 40
60.82705929501527
 40
65.92282840411662
 40
65.92282840411662
 40
70.05038571874132
 40
70.05038571874132
 40
74.17794923544416
 40
74.17794923544416
 40
77.50957357231806
 40
77.50957357231806
 40
80.84119790919197
 40
80.84119790919197
 40
85.94066136921414
 40
85.94066136921414
 40
92.65532035418159
 40
92.65532035418159
 40
100.5830392962337
 40
100.5830392962337
 40
109.7605617389267
 40
109.7605617389267
 40
118.9380898491935
 40
118.9380898491935
 40
127.2292541974272
 40
127.2292541974272
 40
134.6517465441757
 40
134.6517465441757
 40
144.9475076569351
 40
144.9475076569351
 40
155.2432687696945
 40
155.2432687696945
 40
155.2432687696945
 40
155.2432687696945
 10
2963.799937663573
 20
1783.32740154032
 30
0.0
 10
2963.664188017358
 20
1784.050817190095
 30
0.0
 10
2963.50646154395
 20
1784.781795296922
 30
0.0
 10
2962.846114881357
 20
1787.504485585599
 30
0.0
 10
2962.211941378498
 20
1789.536503724449
 30
0.0
 10
2960.660722908107
 20
1793.661883402223
 30
0.0
 10
2959.742603894325
 20
1795.75562038029
 30
0.0
 10
2957.932038105051
 20
1799.364402678872
 30
0.0
 10
2957.10394264879
 20
1800.877753587547
 30
0.0
 10
2955.223114385897
 20
1804.029708310194
 30
0.0
 10
2954.156744032493
 20
1805.666723091195
 30
0.0
 10
2952.099235349606
 20
1808.536420310036
 30
0.0
 10
2951.141605325428
 20
1809.780039166924
 30
0.0
 10
2949.137253815317
 20
1812.177775455334
 30
0.0
 10
2948.093374275558
 20
1813.333506124758
 30
0.0
 10
2945.748446918946
 20
1815.696137897581
 30
0.0
 10
2944.431433249907
 20
1816.891756768522
 30
0.0
 10
2942.225299403852
 20
1818.633013581719
 30
0.0
 10
2941.391318868549
 20
1819.239123825815
 30
0.0
 10
2939.389596901792
 20
1820.553678847221
 30
0.0
 10
2938.200430497962
 20
1821.232450912706
 30
0.0
 10
2935.962851595041
 20
1822.285900470329
 30
0.0
 10
2934.930548478269
 20
1822.693575411004
 30
0.0
 10
2932.816640398045
 20
1823.350033162735
 30
0.0
 10
2931.735098667369
 20
1823.598449370411
 30
0.0
 10
2929.757042389719
 20
1823.881207379415
 30
0.0
 10
2928.865214737724
 20
1823.947608770803
 30
0.0
 10
2927.08075121519
 20
1823.955782359444
 30
0.0
 10
2926.188216373126
 20
1823.897546484751
 30
0.0
 10
2923.949226473613
 20
1823.597763233798
 30
0.0
 10
2922.614094449679
 20
1823.274914156047
 30
0.0
 10
2919.615352422536
 20
1822.254149935163
 30
0.0
 10
2917.982234064706
 20
1821.471749514236
 30
0.0
 10
2914.610671277036
 20
1819.468703318365
 30
0.0
 10
2912.905052737808
 20
1818.19647277862
 30
0.0
 10
2909.470510383713
 20
1815.221456966588
 30
0.0
 10
2907.778332177436
 20
1813.481916057261
 30
0.0
 10
2904.65827523832
 20
1809.862604605796
 30
0.0
 10
2903.230136460175
 20
1807.981522635498
 30
0.0
 10
2900.738715064889
 20
1804.342251241804
 30
0.0
 10
2899.653514869142
 20
1802.588736958894
 30
0.0
 10
2897.77532363263
 20
1799.253053368031
 30
0.0
 10
2896.963915574453
 20
1797.672251549359
 30
0.0
 10
2895.2103691918
 20
1793.91359602979
 30
0.0
 10
2894.338828526494
 20
1791.741348293183
 30
0.0
 10
2892.909739097368
 20
1787.468699652445
 30
0.0
 10
2892.352328049144
 20
1785.367813791539
 30
0.0
 10
2891.969442717129
 20
1783.327401540201
 30
0.0
  0
ELLIPSE
  5
6E9
330
1F
100
AcDbEntity
  8
Model
100
AcDbEllipse
 10
2842.831999037562
 20
1918.738008164886
 30
0.0
 11
16.74652590767778
 21
-160.5752436726801
 31
0.0
210
0.0
220
0.0
230
1.0
 40
0.278286342176008
 41
0.0619049708364279
 42
0.616750254104047
  0
ELLIPSE
  5
6EA
330
1F
100
AcDbEntity
  8
Model
100
AcDbEllipse
 10
2882.338935656122
 20
1782.455844112725
 30
0.0
 11
9.67669650541541
 21
-2.52221028902999
 31
0.0
210
0.0
220
0.0
230
1.0
 40
0.7889920662812056
 41
0.4276752110609723
 42
1.77361776381527
  0
ELLIPSE
  5
6EB
330
1F
100
AcDbEntity
  8
Model
100
AcDbEllipse
 10
2852.462506098569
 20
1919.609565592363
 30
0.0
 11
-16.58948639749517
 21
170.5873686782344
 31
0.0
210
0.0
220
0.0
230
1.0
 40
0.2622962973916306
 41
3.528915093574712
 42
3.761854900651285
  0
ELLIPSE
  5
6EC
330
1F
100
AcDbEntity
  8
Model
100
AcDbEllipse
 10
3003.306874282158
 20
1919.609565592363
 30
0.0
 11
-16.58948639749764
 21
-170.5873686782344
 31
0.0
210
0.0
220
0.0
230
1.0
 40
0.2622962973916617
 41
5.662923060117386
 42
5.895862867194675
  0
ELLIPSE
  5
6ED
330
1F
100
AcDbEntity
  8
Model
100
AcDbEllipse
 10
2973.430444724569
 20
1782.455844112843
 30
0.0
 11
-9.676696505380851
 21
-2.522210289145936
 31
0.0
210
0.0
220
0.0
230
1.0
 40
0.7889920662795628
 41
4.50956754335495
 42
5.855510096103231
  0
ELLIPSE
  5
6EE
330
1F
100
AcDbEntity
  8
Model
100
AcDbEllipse
 10
3012.937381343165
 20
1918.738008164886
 30
0.0
 11
16.74652590768095
 21
160.5752436726798
 31
0.0
210
0.0
220
0.0
230
0.9999999999999998
 40
0.2782863421760495
 41
2.524842399484826
 42
3.079687682753386
  0
SPLINE
  5
6EF
330
1F
100
AcDbEntity
  8
Model
100
AcDbSpline
210
0.0
220
0.0
230
1.0
 70
    24
 71
     3
 72
    36
 73
    32
 74
     0
 42
0.000000001
 43
0.0000000001
 40
0.0
 40
0.0
 40
0.0
 40
0.0
 40
7.203230303625053
 40
7.203230303625053
 40
14.40646060725011
 40
14.40646060725011
 40
22.74455950881848
 40
22.74455950881848
 40
28.81292121450022
 40
28.81292121450022
 40
37.24302200490597
 40
37.24302200490597
 40
41.45806986243772
 40
41.45806986243772
 40
45.67311771996947
 40
45.67311771996947
 40
48.18983399916347
 40
48.18983399916347
 40
50.70655027835747
 40
50.70655027835747
 40
53.22326658087963
 40
53.22326658087963
 40
54.79839779225925
 40
54.79839779225925
 40
55.73997777921024
 40
55.73997777921024
 40
56.37352900363886
 40
56.37352900363886
 40
57.28291036175289
 40
57.28291036175289
 40
57.36743892198706
 40
57.36743892198706
 40
57.36743892198706
 40
57.36743892198706
 10
2966.230576306598
 20
1758.738008164885
 30
0.0
 10
2966.844774656975
 20
1758.738008164885
 30
0.0
 10
2967.54610368705
 20
1758.738008164885
 30
0.0
 10
2969.085909767798
 20
1758.738008164885
 30
0.0
 10
2969.924564389445
 20
1758.738008164885
 30
0.0
 10
2971.856273908636
 20
1758.738008164885
 30
0.0
 10
2972.968901143153
 20
1758.738008164885
 30
0.0
 10
2974.999289306382
 20
1758.738008164885
 30
0.0
 10
2975.887369208967
 20
1758.738008164885
 30
0.0
 10
2978.079793665425
 20
1758.738008164885
 30
0.0
 10
2979.411307059008
 20
1758.738008164885
 30
0.0
 10
2981.495782799002
 20
1758.738008164885
 30
0.0
 10
2982.205267908861
 20
1758.738008164885
 30
0.0
 10
2983.656592063536
 20
1758.738008164885
 30
0.0
 10
2984.398252820089
 20
1758.738008164885
 30
0.0
 10
2985.614736299734
 20
1758.738008164885
 30
0.0
 10
2986.076606709956
 20
1758.738008164885
 30
0.0
 10
2987.019839092771
 20
1758.738008164885
 30
0.0
 10
2987.501155959405
 20
1758.738008164885
 30
0.0
 10
2988.493509777267
 20
1758.738008164885
 30
0.0
 10
2989.003986880563
 20
1758.738008164885
 30
0.0
 10
2989.875723982672
 20
1758.738008164885
 30
0.0
 10
2990.221291924869
 20
1758.738008164885
 30
0.0
 10
2990.801607746342
 20
1758.738008164885
 30
0.0
 10
2991.025090184374
 20
1758.738008164885
 30
0.0
 10
2991.415412223951
 20
1758.738008164885
 30
0.0
 10
2991.576988796767
 20
1758.738008164885
 30
0.0
 10
2991.984118098966
 20
1758.738008164885
 30
0.0
 10
2992.235199545796
 20
1758.738008164885
 30
0.0
 10
2992.530450614328
 20
1758.738008164885
 30
0.0
 10
2992.555728766469
 20
1758.738008164885
 30
0.0
 10
2992.581159014751
 20
1758.738008164885
 30
0.0
  0
SPLINE
  5
6F0
330
1F
100
AcDbEntity
  8
Model
100
AcDbSpline
210
0.0
220
0.0
230
1.0
 70
     8
 71
     3
 72
    38
 73
    34
 74
     0
 42
0.000000001
 43
0.0000000001
 40
0.0
 40
0.0
 40
0.0
 40
0.0
 40
7.203230303625053
 40
7.203230303625053
 40
14.40646060725011
 40
14.40646060725011
 40
22.74455950881848
 40
22.74455950881848
 40
28.81292121450022
 40
28.81292121450022
 40
37.24302200490597
 40
37.24302200490597
 40
41.45806986243772
 40
41.45806986243772
 40
45.67311771996947
 40
45.67311771996947
 40
48.18983399916347
 40
48.18983399916347
 40
50.70655027835747
 40
50.70655027835747
 40
53.22326658087963
 40
53.22326658087963
 40
54.79839779225925
 40
54.79839779225925
 40
55.73997777921024
 40
55.73997777921024
 40
56.37352900363886
 40
56.37352900363886
 40
57.28291036175289
 40
57.28291036175289
 40
57.78190440233673
 40
57.78190440233673
 40
58.28089844292057
 40
58.28089844292057
 40
58.28089844292057
 40
58.28089844292057
 10
2971.0458298371
 20
1763.302229451147
 30
0.0
 10
2971.603732062433
 20
1763.013233637354
 30
0.0
 10
2972.224532883652
 20
1762.732489110659
 30
0.0
 10
2973.566097407487
 20
1762.192197165341
 30
0.0
 10
2974.287008132278
 20
1761.932569932706
 30
0.0
 10
2975.93278621488
 20
1761.398053068012
 30
0.0
 10
2976.872162889971
 20
1761.12712970121
 30
0.0
 10
2978.575919806974
 20
1760.690055907289
 30
0.0
 10
2979.318075829548
 20
1760.51553115669
 30
0.0
 10
2981.14400867254
 20
1760.122959807337
 30
0.0
 10
2982.248198149586
 20
1759.914327966531
 30
0.0
 10
2983.968899889152
 20
1759.63273525584
 30
0.0
 10
2984.553279793816
 20
1759.544102905932
 30
0.0
 10
2985.745250240232
 20
1759.377749481762
 30
0.0
 10
2986.352732731628
 20
1759.300028736065
 30
0.0
 10
2987.344840110263
 20
1759.185054022398
 30
0.0
 10
2987.720579725896
 20
1759.144119248446
 30
0.0
 10
2988.485091806086
 20
1759.066392489753
 30
0.0
 10
2988.873858631777
 20
1759.029589513858
 30
0.0
 10
2989.670798318965
 20
1758.960254954216
 30
0.0
 10
2990.078630963975
 20
1758.927717222638
 30
0.0
 10
2990.767954958889
 20
1758.878685703443
 30
0.0
 10
2991.039588825408
 20
1758.86074191242
 30
0.0
 10
2991.490953404895
 20
1758.833792551591
 30
0.0
 10
2991.663750359176
 20
1758.824093919777
 30
0.0
 10
2991.962792999048
 20
1758.80865356079
 30
0.0
 10
2992.085864606737
 20
1758.802652685984
 30
0.0
 10
2992.393413201009
 20
1758.788753763347
 30
0.0
 10
2992.581115768002
 20
1758.781137691592
 30
0.0
 10
2992.887729251177
 20
1758.770945858035
 30
0.0
 10
2992.999280917002
 20
1758.767664155634
 30
0.0
 10
2993.226589379688
 20
1758.762187766126
 30
0.0
 10
2993.343835572656
 20
1758.759974877532
 30
0.0
 10
2993.458420752826
 20
1758.758659839966
 30
0.0
  0
SPLINE
  5
6F1
330
1F
100
AcDbEntity
  8
Model
100
AcDbSpline
210
0.0
220
0.0
230
1.0
 70
     8
 71
     3
 72
    12
 73
     8
 74
     0
 42
0.000000001
 43
0.0000000001
 40
-0.0031583240198416
 40
-0.0031583240198416
 40
-0.0031583240198416
 40
-0.0031583240198416
 40
0.0
 40
0.0
 40
0.3748477372640027
 40
0.3748477372640027
 40
0.9120138740834899
 40
0.9120138740834899
 40
0.9120138740834899
 40
0.9120138740834899
 10
2993.458420752826
 20
1758.758659839966
 30
0.0
 10
2993.457551285678
 20
1758.758605944419
 30
0.0
 10
2993.456680302099
 20
1758.758552139521
 30
0.0
 10
2993.35239603757
 20
1758.752131954574
 30
0.0
 10
2993.236271438267
 20
1758.747556132932
 30
0.0
 10
2992.944157748762
 20
1758.739806041802
 30
0.0
 10
2992.761256781955
 20
1758.738008164885
 30
0.0
 10
2992.581159014868
 20
1758.738008164885
 30
0.0
  0
LINE
  5
6F2
330
1F
100
AcDbEntity
  8
Model
100
AcDbLine
 10
2957.290997861781
 20
1758.738008164885
 30
0.0
 11
2966.230576306595
 21
1758.738008164885
 31
0.0
210
0.0
220
1.0
230
0.0
  0
LINE
  5
6F3
330
1F
100
AcDbEntity
  8
Model
100
AcDbLine
 10
2971.0458298371
 20
1763.302229451146
 30
0.0
 11
2962.106251392286
 21
1763.302229451146
 31
0.0
210
0.0
220
1.0
230
0.0
  0
ELLIPSE
  5
6F4
330
1F
100
AcDbEntity
  8
Model
100
AcDbEllipse
 10
2966.230576306595
 20
1763.738008164885
 30
0.0
 11
0.0
 21
-5.0
 31
0.0
210
0.0
220
0.0
230
1.0
 40
0.9667294033439388
 41
0.0
 42
1.483529864195063
  0
LINE
  5
6F5
330
1F
100
AcDbEntity
  8
Model
100
AcDbLine
 10
2898.478382518943
 20
1758.738008164885
 30
0.0
 11
2957.290997861781
 21
1758.738008164885
 31
0.0
210
0.0
220
1.0
230
0.0
  0
LINE
  5
6F6
330
1F
100
AcDbEntity
  8
Model
100
AcDbLine
 10
2962.106251392286
 20
1763.302229451146
 30
0.0
 11
2893.663128988437
 21
1763.302229451147
 31
0.0
210
0.0
220
1.0
230
0.0
  0
ELLIPSE
  5
6F7
330
1F
100
AcDbEntity
  8
Model
100
AcDbEllipse
 10
2957.290997861781
 20
1763.738008164885
 30
0.0
 11
0.0
 21
-5.0
 31
0.0
210
0.0
220
0.0
230
1.0
 40
0.9667294033439867
 41
0.0
 42
1.483529864195126
  0
SPLINE
  5
6F8
330
1F
100
AcDbEntity
  8
Model
100
AcDbSpline
210
0.0
220
0.0
230
1.0
 70
     8
 71
     3
 72
    38
 73
    34
 74
     0
 42
0.000000001
 43
0.0000000001
 40
0.0
 40
0.0
 40
0.0
 40
0.0
 40
0.4989940405933592
 40
0.4989940405933592
 40
0.9979880811867179
 40
0.9979880811867179
 40
1.907369325022203
 40
1.907369325022203
 40
2.540920663809615
 40
2.540920663809615
 40
3.482500593578508
 40
3.482500593578508
 40
5.057631862134811
 40
5.057631862134811
 40
7.574348164651542
 40
7.574348164651542
 40
10.09106444384011
 40
10.09106444384011
 40
12.60778072302868
 40
12.60778072302868
 40
16.82282858054357
 40
16.82282858054357
 40
21.03787643805846
 40
21.03787643805846
 40
29.46797722843048
 40
29.46797722843048
 40
35.53633893412236
 40
35.53633893412236
 40
43.87443783568186
 40
43.87443783568186
 40
51.07766813930755
 40
51.07766813930755
 40
58.28089844293324
 40
58.28089844293324
 40
58.28089844293324
 40
58.28089844293324
 10
2862.310959627897
 20
1758.758659839966
 30
0.0
 10
2862.42554480806
 20
1758.759974877532
 30
0.0
 10
2862.542790998547
 20
1758.762187766075
 30
0.0
 10
2862.770099461233
 20
1758.767664155565
 30
0.0
 10
2862.88165112955
 20
1758.770945858035
 30
0.0
 10
2863.188264587842
 20
1758.781137690765
 30
0.0
 10
2863.3759671307
 20
1758.788753761366
 30
0.0
 10
2863.683515728944
 20
1758.802652683786
 30
0.0
 10
2863.806587360011
 20
1758.80865355967
 30
0.0
 10
2864.105630010736
 20
1758.824093919218
 30
0.0
 10
2864.278426953849
 20
1758.833792550361
 30
0.0
 10
2864.729791531443
 20
1758.860741910857
 30
0.0
 10
2865.001425405603
 20
1758.878685702317
 30
0.0
 10
2865.690749406165
 20
1758.927717221839
 30
0.0
 10
2866.098582050922
 20
1758.96025495332
 30
0.0
 10
2866.895521740791
 20
1759.029589513101
 30
0.0
 10
2867.284288569207
 20
1759.066392489217
 30
0.0
 10
2868.048800653587
 20
1759.144119248305
 30
0.0
 10
2868.424540270493
 20
1759.185054022402
 30
0.0
 10
2869.416647649121
 20
1759.300028736069
 30
0.0
 10
2870.024130138094
 20
1759.377749481459
 30
0.0
 10
2871.216100581403
 20
1759.544102905134
 30
0.0
 10
2871.800480485219
 20
1759.632735254852
 30
0.0
 10
2873.521182225291
 20
1759.914327965474
 30
0.0
 10
2874.625371706252
 20
1760.12295980693
 30
0.0
 10
2876.451304551671
 20
1760.515531156788
 30
0.0
 10
2877.193460573753
 20
1760.690055907289
 30
0.0
 10
2878.897217490756
 20
1761.127129701211
 30
0.0
 10
2879.836594169928
 20
1761.398053069146
 30
0.0
 10
2881.482372258737
 20
1761.932569936212
 30
0.0
 10
2882.203282984139
 20
1762.19219716948
 30
0.0
 10
2883.544847502568
 20
1762.732489113123
 30
0.0
 10
2884.165648318291
 20
1763.013233637353
 30
0.0
 10
2884.723550543624
 20
1763.302229451146
 30
0.0
  0
SPLINE
  5
6F9
330
1F
100
AcDbEntity
  8
Model
100
AcDbSpline
210
0.0
220
0.0
230
1.0
 70
    24
 71
     3
 72
    36
 73
    32
 74
     0
 42
0.000000001
 43
0.0000000001
 40
0.9134595211967083
 40
0.9134595211967083
 40
0.9134595211967083
 40
0.9134595211967083
 40
0.9979880811867179
 40
0.9979880811867179
 40
1.907369325022203
 40
1.907369325022203
 40
2.540920663809615
 40
2.540920663809615
 40
3.482500593578508
 40
3.482500593578508
 40
5.057631862134811
 40
5.057631862134811
 40
7.574348164651542
 40
7.574348164651542
 40
10.09106444384011
 40
10.09106444384011
 40
12.60778072302868
 40
12.60778072302868
 40
16.82282858054357
 40
16.82282858054357
 40
21.03787643805846
 40
21.03787643805846
 40
29.46797722843048
 40
29.46797722843048
 40
35.53633893412236
 40
35.53633893412236
 40
43.87443783568186
 40
43.87443783568186
 40
51.07766813930755
 40
51.07766813930755
 40
58.28089844293324
 40
58.28089844293324
 40
58.28089844293324
 40
58.28089844293324
 10
2863.188221366034
 20
1758.738008164885
 30
0.0
 10
2863.2136516144
 20
1758.738008164885
 30
0.0
 10
2863.238929766476
 20
1758.738008164885
 30
0.0
 10
2863.534180800986
 20
1758.738008164885
 30
0.0
 10
2863.78526221615
 20
1758.738008164885
 30
0.0
 10
2864.192391524828
 20
1758.738008164885
 30
0.0
 10
2864.353968128487
 20
1758.738008164885
 30
0.0
 10
2864.744290182228
 20
1758.738008164885
 30
0.0
 10
2864.967772605944
 20
1758.738008164885
 30
0.0
 10
2865.548088425459
 20
1758.738008164885
 30
0.0
 10
2865.893656377479
 20
1758.738008164885
 30
0.0
 10
2866.765393486841
 20
1758.738008164885
 30
0.0
 10
2867.275870589916
 20
1758.738008164885
 30
0.0
 10
2868.268224411213
 20
1758.738008164885
 30
0.0
 10
2868.749541281244
 20
1758.738008164885
 30
0.0
 10
2869.692773669247
 20
1758.738008164885
 30
0.0
 10
2870.154644081026
 20
1758.738008164885
 30
0.0
 10
2871.371127560668
 20
1758.738008164885
 30
0.0
 10
2872.112788314261
 20
1758.738008164885
 30
0.0
 10
2873.564112465172
 20
1758.738008164885
 30
0.0
 10
2874.273597574013
 20
1758.738008164885
 30
0.0
 10
2876.358073314657
 20
1758.738008164885
 30
0.0
 10
2877.689586712977
 20
1758.738008164885
 30
0.0
 10
2879.88201117235
 20
1758.738008164885
 30
0.0
 10
2880.770091074344
 20
1758.738008164885
 30
0.0
 10
2882.800479237574
 20
1758.738008164885
 30
0.0
 10
2883.913106476941
 20
1758.738008164885
 30
0.0
 10
2885.844816003306
 20
1758.738008164885
 30
0.0
 10
2886.683470625531
 20
1758.738008164885
 30
0.0
 10
2888.223276699891
 20
1758.738008164885
 30
0.0
 10
2888.924605723749
 20
1758.738008164885
 30
0.0
 10
2889.538804074126
 20
1758.738008164885
 30
0.0
  0
SPLINE
  5
6FA
330
1F
100
AcDbEntity
  8
Model
100
AcDbSpline
210
0.0
220
0.0
230
1.0
 70
     8
 71
     3
 72
    14
 73
    10
 74
     0
 42
0.000000001
 43
0.0000000001
 40
0.0
 40
0.0
 40
0.0
 40
0.0
 40
0.0350343972490207
 40
0.0350343972490207
 40
0.5628334392456221
 40
0.5628334392456221
 40
0.9173475149082815
 40
0.9173475149082815
 40
0.9205224476526863
 40
0.9205224476526863
 40
0.9205224476526863
 40
0.9205224476526863
 10
2863.188221365856
 20
1758.738008164885
 30
0.0
 10
2863.176543233438
 20
1758.738008164885
 30
0.0
 10
2863.164864393608
 20
1758.738015752619
 30
0.0
 10
2862.977273765525
 20
1758.738263066154
 30
0.0
 10
2862.799022462766
 20
1758.74026390253
 30
0.0
 10
2862.519348314976
 20
1758.748107565679
 30
0.0
 10
2862.410831138079
 20
1758.752510767893
 30
0.0
 10
2862.312700366192
 20
1758.758552121975
 30
0.0
 10
2862.311828809902
 20
1758.758605962094
 30
0.0
 10
2862.310959627897
 20
1758.758659839966
 30
0.0
  0
LINE
  5
6FB
330
1F
100
AcDbEntity
  8
Model
100
AcDbLine
 10
2893.663128988437
 20
1763.302229451147
 30
0.0
 11
2884.723550543628
 21
1763.302229451147
 31
0.0
210
0.0
220
1.0
230
0.0
  0
ELLIPSE
  5
6FC
330
1F
100
AcDbEntity
  8
Model
100
AcDbEllipse
 10
2898.478382518939
 20
1763.738008164885
 30
0.0
 11
0.0
 21
-5.0
 31
0.0
210
0.0
220
0.0
230
1.0
 40
0.9667294033439558
 41
4.79965544298443
 42
6.283185307179585
  0
LINE
  5
6FD
330
1F
100
AcDbEntity
  8
Model
100
AcDbLine
 10
2889.538804074129
 20
1758.738008164885
 30
0.0
 11
2898.478382518939
 21
1758.738008164885
 31
0.0
210
0.0
220
1.0
230
0.0
  0
ELLIPSE
  5
6FE
330
1F
100
AcDbEntity
  8
Model
100
AcDbEllipse
 10
2889.538804074129
 20
1763.738008164885
 30
0.0
 11
0.0000000000000016
 21
-5.000000000001962
 31
0.0
210
0.0
220
0.0
230
1.0
 40
0.9667294033439867
 41
4.799655442984366
 42
6.283185307179585
  0
ARC
  5
6FF
330
1F
100
AcDbEntity
  8
Model
100
AcDbCircle
 10
2837.390545455672
 20
1805.095151022028
 30
0.0
 40
47.0
100
AcDbArc
 50
189.0876949948938
 51
270.0
  0
ARC
  5
700
330
1F
100
AcDbEntity
  8
Model
100
AcDbCircle
 10
2837.493672056798
 20
2032.380865307744
 30
0.0
 40
47.0
100
AcDbArc
 50
90.0
 51
170.8603112525519
  0
ARC
  5
701
330
1F
100
AcDbEntity
  8
Model
100
AcDbCircle
 10
3018.275708323932
 20
2032.380865307744
 30
0.0
 40
47.0
100
AcDbArc
 50
9.139688747448133
 51
90.0
  0
ARC
  5
702
330
1F
100
AcDbEntity
  8
Model
100
AcDbCircle
 10
3018.378834925059
 20
1805.095151022028
 30
0.0
 40
47.0
100
AcDbArc
 50
270.0
 51
350.9123050051061
  0
LINE
  5
703
330
1F
100
AcDbEntity
  8
Model
100
AcDbLine
 10
3018.378834925059
 20
1758.095151022028
 30
0.0
 11
2837.390545455672
 21
1758.095151022028
 31
0.0
210
0.0
220
1.0
230
0.0
  0
LINE
  5
704
330
1F
100
AcDbEntity
  8
Model
100
AcDbLine
 10
3018.275708323928
 20
2079.380865307744
 30
0.0
 11
2837.493672056803
 21
2079.380865307744
 31
0.0
210
0.0
220
1.0
230
0.0
  0
SPLINE
  5
705
330
1F
100
AcDbEntity
  8
Model
100
AcDbSpline
210
0.0
220
0.0
230
1.0
 70
     8
 71
     3
 72
    57
 73
    53
 74
     0
 42
0.000000001
 43
0.0000000001
 40
50.48600534560419
 40
50.48600534560419
 40
50.48600534560419
 40
50.48600534560419
 40
60.78146866103279
 40
60.78146866103279
 40
80.8216503141841
 40
80.8216503141841
 40
94.4149104345109
 40
94.4149104345109
 40
111.479138567626
 40
111.479138567626
 40
134.8352296402342
 40
134.8352296402342
 40
151.4426570108721
 40
151.4426570108721
 40
169.4367712103806
 40
169.4367712103806
 40
182.8250989107135
 40
182.8250989107135
 40
200.0521631017022
 40
200.0521631017022
 40
210.9556232367776
 40
210.9556232367776
 40
221.8590833718529
 40
221.8590833718529
 40
232.7625458532268
 40
232.7625458532268
 40
243.6660083346007
 40
243.6660083346007
 40
243.6660083346007
 40
260.5025455517534
 40
260.5025455517534
 40
277.3390827689062
 40
277.3390827689062
 40
287.4015119033668
 40
287.4015119033668
 40
299.8251113188825
 40
299.8251113188825
 40
315.6136794035851
 40
315.6136794035851
 40
331.4022427321145
 40
331.4022427321145
 40
350.7267289089652
 40
350.7267289089652
 40
363.3463826290213
 40
363.3463826290213
 40
384.5692906975762
 40
384.5692906975762
 40
401.2704474311209
 40
401.2704474311209
 40
420.2156100220793
 40
420.2156100220793
 40
436.846886497844
 40
436.846886497844
 40
436.846886497844
 40
436.846886497844
 10
3202.469982387284
 20
2038.87623368309
 30
0.0
 10
3205.873896042024
 20
2039.338141074447
 30
0.0
 10
3209.297877408452
 20
2039.635710469581
 30
0.0
 10
3219.403257150882
 20
2040.024392992828
 30
0.0
 10
3226.100375872369
 20
2039.652267446095
 30
0.0
 10
3237.199431580533
 20
2037.982657602756
 30
0.0
 10
3241.646529545736
 20
2037.02180498977
 30
0.0
 10
3251.515745142962
 20
2034.22644931456
 30
0.0
 10
3256.896544963221
 20
2032.23133478036
 30
0.0
 10
3269.233199240633
 20
2026.521419651606
 30
0.0
 10
3276.038146985364
 20
2022.442534040679
 30
0.0
 10
3286.889727744219
 20
2014.277607977732
 30
0.0
 10
3291.16540063017
 20
2010.534945508486
 30
0.0
 10
3299.494734479636
 20
2002.090472123531
 30
0.0
 10
3303.50012533188
 20
1997.334469831988
 30
0.0
 10
3309.832429279428
 20
1988.503164551116
 30
0.0
 10
3312.326617036811
 20
1984.565446680216
 30
0.0
 10
3317.516409874963
 20
1975.232851241601
 30
0.0
 10
3320.064372793998
 20
1969.743852553548
 30
0.0
 10
3323.568476741158
 20
1960.493148728264
 30
0.0
 10
3324.765801639316
 20
1956.837032918742
 30
0.0
 10
3326.827096716306
 20
1949.417031031753
 30
0.0
 10
3327.691046072666
 20
1945.653171210678
 30
0.0
 10
3329.076898153544
 20
1938.052924436799
 30
0.0
 10
3329.598791067577
 20
1934.216571009745
 30
0.0
 10
3330.295280970047
 20
1926.507604657293
 30
0.0
 10
3330.469880762669
 20
1922.635023760146
 30
0.0
 10
3330.469982342904
 20
1918.762448583076
 30
0.0
 10
3330.470139197613
 20
1912.782627383495
 30
0.0
 10
3330.053742969131
 20
1906.80268120665
 30
0.0
 10
3328.397577975851
 20
1894.976062031576
 30
0.0
 10
3327.157842831869
 20
1889.129682204139
 30
0.0
 10
3324.543086507751
 20
1880.000333306127
 30
0.0
 10
3323.423382935164
 20
1876.632355635381
 30
0.0
 10
3320.615183705842
 20
1869.240604919809
 30
0.0
 10
3318.854787991588
 20
1865.248363207479
 30
0.0
 10
3314.407264213711
 20
1856.443730104985
 30
0.0
 10
3311.598128033444
 20
1851.702278083101
 30
0.0
 10
3305.394201078866
 20
1842.680622266989
 30
0.0
 10
3301.999529868125
 20
1838.400508587758
 30
0.0
 10
3293.869990456717
 20
1829.48291196873
 30
0.0
 10
3289.004687681885
 20
1824.98006387286
 30
0.0
 10
3280.427133184009
 20
1818.310786015814
 30
0.0
 10
3276.900779433277
 20
1815.87562247921
 30
0.0
 10
3267.131494713685
 20
1809.920743431106
 30
0.0
 10
3260.675055790635
 20
1806.794569320938
 30
0.0
 10
3248.743042619525
 20
1802.394111706897
 30
0.0
 10
3243.35184122733
 20
1800.8669218554
 30
0.0
 10
3231.679334523202
 20
1798.52195211605
 30
0.0
 10
3225.376107351144
 20
1797.827455709501
 30
0.0
 10
3213.519646985059
 20
1797.578932874502
 30
0.0
 10
3207.968651649249
 20
1797.89573148848
 30
0.0
 10
3202.469982387284
 20
1798.641894943945
 30
0.0
  0
SPLINE
  5
706
330
1F
100
AcDbEntity
  8
Model
100
AcDbSpline
210
0.0
220
0.0
230
1.0
 70
     8
 71
     3
 72
    57
 73
    53
 74
     0
 42
0.000000001
 43
0.0000000001
 40
54.71175538786816
 40
54.71175538786816
 40
54.71175538786816
 40
54.71175538786816
 40
60.78146866103279
 40
60.78146866103279
 40
80.8216503141841
 40
80.8216503141841
 40
94.4149104345109
 40
94.4149104345109
 40
111.479138567626
 40
111.479138567626
 40
134.8352296402342
 40
134.8352296402342
 40
151.4426570108721
 40
151.4426570108721
 40
169.4367712103806
 40
169.4367712103806
 40
182.8250989107135
 40
182.8250989107135
 40
200.0521631017022
 40
200.0521631017022
 40
210.9556232367776
 40
210.9556232367776
 40
221.8590833718529
 40
221.8590833718529
 40
232.7625458532268
 40
232.7625458532268
 40
243.6660083346007
 40
243.6660083346007
 40
243.6660083346007
 40
260.5025455517534
 40
260.5025455517534
 40
277.3390827689062
 40
277.3390827689062
 40
287.4015119033668
 40
287.4015119033668
 40
299.8251113188825
 40
299.8251113188825
 40
315.6136794035851
 40
315.6136794035851
 40
331.4022427321145
 40
331.4022427321145
 40
350.7267289089652
 40
350.7267289089652
 40
363.3463826290213
 40
363.3463826290213
 40
384.5692906975762
 40
384.5692906975762
 40
401.2704474311209
 40
401.2704474311209
 40
420.2156100220793
 40
420.2156100220793
 40
432.6211412839142
 40
432.6211412839142
 40
432.6211412839142
 40
432.6211412839142
 10
3202.469982387284
 20
2078.738008164886
 30
0.0
 10
3205.318427640096
 20
2078.993605261233
 30
0.0
 10
3208.173818274717
 20
2079.173127652849
 30
0.0
 10
3220.468684425831
 20
2079.616950298784
 30
0.0
 10
3229.935573177953
 20
2079.123262903125
 30
0.0
 10
3245.624936023747
 20
2076.908243422305
 30
0.0
 10
3251.911248609382
 20
2075.633510127905
 30
0.0
 10
3265.862138539088
 20
2071.92499864475
 30
0.0
 10
3273.468310000909
 20
2069.27814220859
 30
0.0
 10
3290.907112936107
 20
2061.702975294908
 30
0.0
 10
3300.52642624717
 20
2056.291644543424
 30
0.0
 10
3315.865964353181
 20
2045.459490935181
 30
0.0
 10
3321.909954498063
 20
2040.494216974568
 30
0.0
 10
3333.684103981059
 20
2029.291196623696
 30
0.0
 10
3339.346029830649
 20
2022.981556219611
 30
0.0
 10
3348.297225039973
 20
2011.265338016752
 30
0.0
 10
3351.822949908831
 20
2006.041290117888
 30
0.0
 10
3359.159118414805
 20
1993.660025844911
 30
0.0
 10
3362.760858581309
 20
1986.377941906116
 30
0.0
 10
3367.714177108755
 20
1974.105320691015
 30
0.0
 10
3369.406687288488
 20
1969.254865493633
 30
0.0
 10
3372.320485294869
 20
1959.410979634327
 30
0.0
 10
3373.54174368736
 20
1954.417583805943
 30
0.0
 10
3375.500751437137
 20
1944.334572657954
 30
0.0
 10
3376.238486926551
 20
1939.245001815915
 30
0.0
 10
3377.223028592583
 20
1929.017755782484
 30
0.0
 10
3377.469838733127
 20
1923.880123081973
 30
0.0
 10
3377.469982324548
 20
1918.742497970112
 30
0.0
 10
3377.470204050655
 20
1910.809255062053
 30
0.0
 10
3376.881596182737
 20
1902.875846350546
 30
0.0
 10
3374.540480488278
 20
1887.185838310918
 30
0.0
 10
3372.788020187326
 20
1879.429627923377
 30
0.0
 10
3369.091862441921
 20
1867.318004518079
 30
0.0
 10
3367.509075933595
 20
1862.849813232893
 30
0.0
 10
3363.539471869015
 20
1853.043407324545
 30
0.0
 10
3361.051018090662
 20
1847.74702434008
 30
0.0
 10
3354.764103586296
 20
1836.066191287194
 30
0.0
 10
3350.793175070005
 20
1829.775854273582
 30
0.0
 10
3342.023450544019
 20
1817.807103932497
 30
0.0
 10
3337.22482354656
 20
1812.12881015779
 30
0.0
 10
3325.733098759471
 20
1800.29811191889
 30
0.0
 10
3318.855621738354
 20
1794.324323317129
 30
0.0
 10
3306.730593412947
 20
1785.47639969276
 30
0.0
 10
3301.745823089003
 20
1782.245743923641
 30
0.0
 10
3287.936193086262
 20
1774.345590992643
 30
0.0
 10
3278.809523609238
 20
1770.198192975026
 30
0.0
 10
3261.942711779053
 20
1764.360242642792
 30
0.0
 10
3254.32183690096
 20
1762.334167338149
 30
0.0
 10
3237.8218572796
 20
1759.223168876254
 30
0.0
 10
3228.911764312939
 20
1758.301802081488
 30
0.0
 10
3214.142494978754
 20
1758.011256996194
 30
0.0
 10
3208.291724598608
 20
1758.215610761101
 30
0.0
 10
3202.469982387284
 20
1758.738008164886
 30
0.0
  0
LINE
  5
707
330
1F
100
AcDbEntity
  8
Model
100
AcDbLine
 10
3316.525170783493
 20
1763.302229451147
 30
0.0
 11
3316.973328252998
 21
1783.327401540202
 31
0.0
210
0.0
220
1.0
230
0.0
  0
SPLINE
  5
708
330
1F
100
AcDbEntity
  8
Model
100
AcDbSpline
210
0.0
220
0.0
230
1.0
 70
     8
 71
     3
 72
    26
 73
    22
 74
     0
 42
0.000000001
 43
0.0000000001
 40
77.61946866584934
 40
77.61946866584934
 40
77.61946866584934
 40
77.61946866584934
 40
80.84119790919197
 40
80.84119790919197
 40
85.94066136921414
 40
85.94066136921414
 40
92.65532035418159
 40
92.65532035418159
 40
100.5830392962337
 40
100.5830392962337
 40
109.7605617389267
 40
109.7605617389267
 40
118.9380898491935
 40
118.9380898491935
 40
127.2292541974272
 40
127.2292541974272
 40
134.6517465441757
 40
134.6517465441757
 40
144.9475076569351
 40
144.9475076569351
 40
155.2432687696945
 40
155.2432687696945
 40
155.2432687696945
 40
155.2432687696945
 10
3348.175457922863
 20
1823.951896625956
 30
0.0
 10
3348.175448304586
 20
1823.951874958982
 30
0.0
 10
3348.142811367968
 20
1823.893638957135
 30
0.0
 10
3347.976409293818
 20
1823.597763233798
 30
0.0
 10
3347.794605907079
 20
1823.274914156047
 30
0.0
 10
3347.212846207187
 20
1822.254149935163
 30
0.0
 10
3346.762927375519
 20
1821.471749514236
 30
0.0
 10
3345.584138508372
 20
1819.468703318365
 30
0.0
 10
3344.820448715426
 20
1818.19647277862
 30
0.0
 10
3342.975064040596
 20
1815.221456966588
 30
0.0
 10
3341.861891593171
 20
1813.481916057261
 30
0.0
 10
3339.446605106962
 20
1809.862604605796
 30
0.0
 10
3338.143938690591
 20
1807.981522635498
 30
0.0
 10
3335.510009173344
 20
1804.342251241804
 30
0.0
 10
3334.193120396728
 20
1802.588736958894
 30
0.0
 10
3331.582257632518
 20
1799.253053368031
 30
0.0
 10
3330.300450469434
 20
1797.672251549359
 30
0.0
 10
3327.13389750697
 20
1793.91359602979
 30
0.0
 10
3325.207579559943
 20
1791.741348293183
 30
0.0
 10
3321.200038933195
 20
1787.468699652445
 30
0.0
 10
3319.118194739235
 20
1785.367813791539
 30
0.0
 10
3316.973328252997
 20
1783.327401540201
 30
0.0
  0
ELLIPSE
  5
709
330
1F
100
AcDbEntity
  8
Model
100
AcDbEllipse
 10
3319.521606377244
 20
1782.455844112725
 30
0.0
 11
-6.018094331768154
 21
7.986397223651446
 31
0.0
210
0.0
220
0.0
230
1.0
 40
0.1549654538945402
 41
-0.0000000000000133
 42
1.345942552754297
  0
ARC
  5
70A
330
1F
100
AcDbEntity
  8
Model
100
AcDbCircle
 10
3214.278847120186
 20
1919.609565592363
 30
0.0
 40
170.6428571428577
100
AcDbArc
 50
293.653131138486
 51
306.999598964579
  0
LINE
  5
70B
330
1F
100
AcDbEntity
  8
Model
100
AcDbLine
 10
3315.251031721369
 20
1758.738008164885
 30
0.0
 11
3337.888326517197
 21
1758.738008164885
 31
0.0
210
0.0
220
1.0
230
0.0
  0
LINE
  5
70C
330
1F
100
AcDbEntity
  8
Model
100
AcDbLine
 10
3342.869300007655
 20
1763.302229451147
 30
0.0
 11
3316.525170783493
 21
1763.302229451147
 31
0.0
210
0.0
220
1.0
230
0.0
  0
SPLINE
  5
70D
330
1F
100
AcDbEntity
  8
Model
100
AcDbSpline
210
0.0
220
0.0
230
1.0
 70
     8
 71
     3
 72
    38
 73
    34
 74
     0
 42
0.000000001
 43
0.0000000001
 40
0.0
 40
0.0
 40
0.0
 40
0.0
 40
0.4989940405933592
 40
0.4989940405933592
 40
0.9979880811867179
 40
0.9979880811867179
 40
1.907369325022203
 40
1.907369325022203
 40
2.540920663809615
 40
2.540920663809615
 40
3.482500593578508
 40
3.482500593578508
 40
5.057631862134811
 40
5.057631862134811
 40
7.574348164651542
 40
7.574348164651542
 40
10.09106444384011
 40
10.09106444384011
 40
12.60778072302868
 40
12.60778072302868
 40
16.82282858054357
 40
16.82282858054357
 40
21.03787643805846
 40
21.03787643805846
 40
29.46797722843048
 40
29.46797722843048
 40
35.53633893412236
 40
35.53633893412236
 40
43.87443783568186
 40
43.87443783568186
 40
51.07766813930755
 40
51.07766813930755
 40
58.28089844293324
 40
58.28089844293324
 40
58.28089844293324
 40
58.28089844293324
 10
3231.412585832098
 20
1758.758659839966
 30
0.0
 10
3231.427009706589
 20
1758.759974877532
 30
0.0
 10
3231.470483477849
 20
1758.762187766075
 30
0.0
 10
3231.592286418182
 20
1758.767664155565
 30
0.0
 10
3231.670817050817
 20
1758.770945858035
 30
0.0
 10
3231.920961619491
 20
1758.781137690765
 30
0.0
 10
3232.114201177112
 20
1758.788753761366
 30
0.0
 10
3232.465198682707
 20
1758.802652683786
 30
0.0
 10
3232.616477654703
 20
1758.80865355967
 30
0.0
 10
3233.002610590423
 20
1758.824093919218
 30
0.0
 10
3233.242477611657
 20
1758.833792550361
 30
0.0
 10
3233.897588272427
 20
1758.860741910857
 30
0.0
 10
3234.322259540074
 20
1758.878685702317
 30
0.0
 10
3235.44494060009
 20
1758.927717221839
 30
0.0
 10
3236.154737800711
 20
1758.96025495332
 30
0.0
 10
3237.590486835237
 20
1759.029589513101
 30
0.0
 10
3238.316908927701
 20
1759.066392489217
 30
0.0
 10
3239.779694481582
 20
1759.144119248305
 30
0.0
 10
3240.516353206476
 20
1759.185054022402
 30
0.0
 10
3242.497205718709
 20
1759.300028736069
 30
0.0
 10
3243.747935316263
 20
1759.377749481459
 30
0.0
 10
3246.259217862736
 20
1759.544102905134
 30
0.0
 10
3247.519920380399
 20
1759.632735254852
 30
0.0
 10
3251.310368947095
 20
1759.914327965474
 30
0.0
 10
3253.848017376821
 20
1760.12295980693
 30
0.0
 10
3258.227483999947
 20
1760.515531156788
 30
0.0
 10
3260.065661523095
 20
1760.690055907289
 30
0.0
 10
3264.439702024367
 20
1761.127129701211
 30
0.0
 10
3266.977867768254
 20
1761.398053069146
 30
0.0
 10
3271.716595977766
 20
1761.932569936212
 30
0.0
 10
3273.91668949891
 20
1762.19219716948
 30
0.0
 10
3278.32475939541
 20
1762.732489113123
 30
0.0
 10
3280.533247362352
 20
1763.013233637353
 30
0.0
 10
3282.740525176708
 20
1763.302229451146
 30
0.0
  0
SPLINE
  5
70E
330
1F
100
AcDbEntity
  8
Model
100
AcDbSpline
210
0.0
220
0.0
230
1.0
 70
    24
 71
     3
 72
    36
 73
    32
 74
     0
 42
0.000000001
 43
0.0000000001
 40
0.9134595211967083
 40
0.9134595211967083
 40
0.9134595211967083
 40
0.9134595211967083
 40
0.9979880811867179
 40
0.9979880811867179
 40
1.907369325022203
 40
1.907369325022203
 40
2.540920663809615
 40
2.540920663809615
 40
3.482500593578508
 40
3.482500593578508
 40
5.057631862134811
 40
5.057631862134811
 40
7.574348164651542
 40
7.574348164651542
 40
10.09106444384011
 40
10.09106444384011
 40
12.60778072302868
 40
12.60778072302868
 40
16.82282858054357
 40
16.82282858054357
 40
21.03787643805846
 40
21.03787643805846
 40
29.46797722843048
 40
29.46797722843048
 40
35.53633893412236
 40
35.53633893412236
 40
43.87443783568186
 40
43.87443783568186
 40
51.07766813930755
 40
51.07766813930755
 40
58.28089844293324
 40
58.28089844293324
 40
58.28089844293324
 40
58.28089844293324
 10
3231.184268101659
 20
1758.738008164885
 30
0.0
 10
3231.196402497636
 20
1758.738008164885
 30
0.0
 10
3231.208879918645
 20
1758.738008164885
 30
0.0
 10
3231.359175234504
 20
1758.738008164885
 30
0.0
 10
3231.529965378157
 20
1758.738008164885
 30
0.0
 10
3231.844521543751
 20
1758.738008164885
 30
0.0
 10
3231.981322735791
 20
1758.738008164885
 30
0.0
 10
3232.33249169836
 20
1758.738008164885
 30
0.0
 10
3232.552349270625
 20
1758.738008164885
 30
0.0
 10
3233.155621468895
 20
1758.738008164885
 30
0.0
 10
3233.5495536942
 20
1758.738008164885
 30
0.0
 10
3234.595246305507
 20
1758.738008164885
 30
0.0
 10
3235.260520573692
 20
1758.738008164885
 30
0.0
 10
3236.611181121133
 20
1758.738008164885
 30
0.0
 10
3237.297082475298
 20
1758.738008164885
 30
0.0
 10
3238.682178253817
 20
1758.738008164885
 30
0.0
 10
3239.381671435239
 20
1758.738008164885
 30
0.0
 10
3241.267235302748
 20
1758.738008164885
 30
0.0
 10
3242.46264080656
 20
1758.738008164885
 30
0.0
 10
3244.872015784501
 20
1758.738008164885
 30
0.0
 10
3246.086148508981
 20
1758.738008164885
 30
0.0
 10
3249.750682721766
 20
1758.738008164885
 30
0.0
 10
3252.222740720066
 20
1758.738008164885
 30
0.0
 10
3256.525291593539
 20
1758.738008164885
 30
0.0
 10
3258.342114627293
 20
1758.738008164885
 30
0.0
 10
3262.693919136638
 20
1758.738008164885
 30
0.0
 10
3265.241872698513
 20
1758.738008164885
 30
0.0
 10
3270.046461644481
 20
1758.738008164885
 30
0.0
 10
3272.296145727654
 20
1758.738008164885
 30
0.0
 10
3276.845230168814
 20
1758.738008164885
 30
0.0
 10
3279.145194603393
 20
1758.738008164885
 30
0.0
 10
3281.466386114586
 20
1758.738008164885
 30
0.0
  0
LINE
  5
70F
330
1F
100
AcDbEntity
  8
Model
100
AcDbLine
 10
3316.525170783493
 20
1763.302229451147
 30
0.0
 11
3282.740525176706
 21
1763.302229451147
 31
0.0
210
0.0
220
1.0
230
0.0
  0
ELLIPSE
  5
710
330
1F
100
AcDbEntity
  8
Model
100
AcDbEllipse
 10
3315.25103172137
 20
1763.738008164885
 30
0.0
 11
0.0
 21
-5.0
 31
0.0
210
0.0
220
0.0
230
1.0
 40
0.2558012132696777
 41
0.0
 42
1.483529864195154
  0
LINE
  5
711
330
1F
100
AcDbEntity
  8
Model
100
AcDbLine
 10
3281.466386114584
 20
1758.738008164885
 30
0.0
 11
3315.25103172137
 21
1758.738008164885
 31
0.0
210
0.0
220
1.0
230
0.0
  0
ELLIPSE
  5
712
330
1F
100
AcDbEntity
  8
Model
100
AcDbEllipse
 10
3281.466386114583
 20
1763.738008164885
 30
0.0
 11
0.0
 21
-5.000000000001962
 31
0.0
210
0.0
220
0.0
230
1.0
 40
0.2558012132695611
 41
0.0
 42
1.483529864195218
  0
SPLINE
  5
713
330
1F
100
AcDbEntity
  8
Model
100
AcDbSpline
210
0.0
220
0.0
230
1.0
 70
    24
 71
     3
 72
    14
 73
    10
 74
     0
 42
0.000000001
 43
0.0000000001
 40
0.0
 40
0.0
 40
0.0
 40
0.0
 40
18.29831018103722
 40
18.29831018103722
 40
36.65190311427502
 40
36.65190311427502
 40
51.71109773970808
 40
51.71109773970808
 40
66.81777417306733
 40
66.81777417306733
 40
66.81777417306733
 40
66.81777417306733
 10
3202.469982387284
 20
2078.738008164886
 30
0.0
 10
3202.469982387284
 20
2078.738008164886
 30
0.0
 10
3202.469982387287
 20
2077.546156426662
 30
0.0
 10
3202.469982387287
 20
2072.909919913167
 30
0.0
 10
3202.469982387329
 20
2069.50426315158
 30
0.0
 10
3202.469982387329
 20
2061.684626423009
 30
0.0
 10
3202.469982387305
 20
2057.612432672755
 30
0.0
 10
3202.469982387305
 20
2048.667794268678
 30
0.0
 10
3202.469982387284
 20
2043.850396677475
 30
0.0
 10
3202.469982387284
 20
2038.87623368309
 30
0.0
  0
LINE
  5
714
330
1F
100
AcDbEntity
  8
Model
100
AcDbLine
 10
3202.469982387284
 20
1798.641894943945
 30
0.0
 11
3202.469982387284
 21
2038.87623368309
 31
0.0
210
0.0
220
1.0
230
0.0
  0
SPLINE
  5
715
330
1F
100
AcDbEntity
  8
Model
100
AcDbSpline
210
0.0
220
0.0
230
1.0
 70
     8
 71
     3
 72
    14
 73
    10
 74
     0
 42
0.000000001
 43
0.0000000001
 40
0.0
 40
0.0
 40
0.0
 40
0.0
 40
18.62699522468422
 40
18.62699522468422
 40
37.1095806427962
 40
37.1095806427962
 40
52.00628592172449
 40
52.00628592172449
 40
66.88451530351468
 40
66.88451530351468
 40
66.88451530351468
 40
66.88451530351468
 10
3202.469982387284
 20
1798.641894943945
 30
0.0
 10
3202.469982387284
 20
1792.509578192019
 30
0.0
 10
3202.46998238726
 20
1786.625697661541
 30
0.0
 10
3202.46998238726
 20
1776.065629674254
 30
0.0
 10
3202.469982387136
 20
1771.482793581464
 30
0.0
 10
3202.469982387136
 20
1764.901363301104
 30
0.0
 10
3202.469982387273
 20
1762.616169712649
 30
0.0
 10
3202.469982387273
 20
1759.525457031232
 30
0.0
 10
3202.469982387284
 20
1758.738008164886
 30
0.0
 10
3202.469982387284
 20
1758.738008164886
 30
0.0
  0
LINE
  5
716
330
1F
100
AcDbEntity
  8
Model
100
AcDbLine
 10
3342.869300007655
 20
1763.302229451147
 30
0.0
 11
3348.175458432518
 21
1823.951897774066
 31
0.0
210
0.0
220
1.0
230
0.0
  0
ARC
  5
717
330
1F
100
AcDbEntity
  8
Model
100
AcDbCircle
 10
3358.137405413435
 20
1823.08034034659
 30
0.0
 40
10.0
100
AcDbArc
 50
145.9046110419198
 51
174.9999999999994
  0
ARC
  5
718
330
1F
100
AcDbEntity
  8
Model
100
AcDbCircle
 10
3337.888326517197
 20
1763.738008164885
 30
0.0
 40
5.0
100
AcDbArc
 50
270.0
 51
354.9999999999994
  0
SPLINE
  5
719
330
1F
100
AcDbEntity
  8
Model
100
AcDbSpline
210
0.0
220
0.0
230
1.0
 70
     8
 71
     3
 72
    35
 73
    31
 74
     0
 42
0.000000001
 43
0.0000000001
 40
50.48600534560419
 40
50.48600534560419
 40
50.48600534560419
 40
50.48600534560419
 40
60.78146866103279
 40
60.78146866103279
 40
80.8216503141841
 40
80.8216503141841
 40
94.4149104345109
 40
94.4149104345109
 40
111.479138567626
 40
111.479138567626
 40
134.8352296402342
 40
134.8352296402342
 40
151.4426570108721
 40
151.4426570108721
 40
169.4367712103806
 40
169.4367712103806
 40
182.8250989107135
 40
182.8250989107135
 40
200.0521631017022
 40
200.0521631017022
 40
210.9556232367776
 40
210.9556232367776
 40
221.8590833718529
 40
221.8590833718529
 40
232.7625458532268
 40
232.7625458532268
 40
243.6660083346007
 40
243.6660083346007
 40
243.6660083346007
 40
243.9906135439948
 40
243.9906135439948
 40
243.9906135439948
 40
243.9906135439948
 10
2790.934931766342
 20
1670.804103498661
 30
0.0
 10
2791.008636615533
 20
1667.400189843921
 30
0.0
 10
2791.056498656277
 20
1663.976208477492
 30
0.0
 10
2791.118990050325
 20
1653.870828735063
 30
0.0
 10
2791.058497469118
 20
1647.173710013575
 30
0.0
 10
2790.792580185723
 20
1636.074654305412
 30
0.0
 10
2790.64032058788
 20
1631.627556340208
 30
0.0
 10
2790.206012457564
 20
1621.758340742982
 30
0.0
 10
2789.900650943807
 20
1616.377540922725
 30
0.0
 10
2789.05958078426
 20
1604.040886645313
 30
0.0
 10
2788.480189217915
 20
1597.235938900581
 30
0.0
 10
2787.411055218179
 20
1586.384358141726
 30
0.0
 10
2786.944136089485
 20
1582.108685255775
 30
0.0
 10
2785.964830073242
 20
1573.779351406309
 30
0.0
 10
2785.452016911373
 20
1569.773960554065
 30
0.0
 10
2784.594828946776
 20
1563.441656606517
 30
0.0
 10
2784.24096145333
 20
1560.947468849134
 30
0.0
 10
2783.480733521987
 20
1555.757676010982
 30
0.0
 10
2783.088606547679
 20
1553.209713091948
 30
0.0
 10
2782.535068776661
 20
1549.705609144787
 30
0.0
 10
2782.341729522615
 20
1548.508284246629
 30
0.0
 10
2782.004479259172
 20
1546.446989169638
 30
0.0
 10
2781.860578334809
 20
1545.583039813279
 30
0.0
 10
2781.627466710166
 20
1544.197187732401
 30
0.0
 10
2781.538262482724
 20
1543.675294818369
 30
0.0
 10
2781.417788383273
 20
1542.978804915898
 30
0.0
 10
2781.386520500956
 20
1542.804205123277
 30
0.0
 10
2781.384768431147
 20
1542.804103543041
 30
0.0
 10
2781.384716270559
 20
1542.804100518912
 30
0.0
 10
2781.384690379882
 20
1542.804252332149
 30
0.0
 10
2781.384690737408
 20
1542.804558947875
 30
0.0
  0
SPLINE
  5
71A
330
1F
100
AcDbEntity
  8
Model
100
AcDbSpline
210
0.0
220
0.0
230
1.0
 70
     8
 71
     3
 72
    35
 73
    31
 74
     0
 42
0.000000001
 43
0.0000000001
 40
958.4891277695673
 40
958.4891277695673
 40
958.4891277695673
 40
958.4891277695673
 40
958.8137326480271
 40
958.8137326480271
 40
958.8137326480271
 40
969.7094452369006
 40
969.7094452369006
 40
980.6051578257736
 40
980.6051578257736
 40
991.5008680683486
 40
991.5008680683486
 40
1002.396578310923
 40
1002.396578310923
 40
1019.623106423202
 40
1019.623106423202
 40
1032.990788353502
 40
1032.990788353502
 40
1050.99460575342
 40
1050.99460575342
 40
1067.59959856548
 40
1067.59959856548
 40
1090.943847773088
 40
1090.943847773088
 40
1108.012056287064
 40
1108.012056287064
 40
1121.626209430964
 40
1121.626209430964
 40
1141.648129348137
 40
1141.648129348137
 40
1151.993733873446
 40
1151.993733873446
 40
1151.993733873446
 40
1151.993733873446
 10
3074.384689643337
 20
1542.80455894782
 30
0.0
 10
3074.38469000086
 20
1542.804252332444
 30
0.0
 10
3074.38466411023
 20
1542.804100519222
 30
0.0
 10
3074.384611949752
 20
1542.804103543032
 30
0.0
 10
3074.382861127049
 20
1542.80420504047
 30
0.0
 10
3074.351636559145
 20
1542.978556594774
 30
0.0
 10
3074.23133013199
 20
1543.67405856152
 30
0.0
 10
3074.14225025485
 20
1544.195211761563
 30
0.0
 10
3073.909459284472
 20
1545.579107599224
 30
0.0
 10
3073.76575463786
 20
1546.441840461832
 30
0.0
 10
3073.428954280991
 20
1548.500250039291
 30
0.0
 10
3073.235868615082
 20
1549.695906013534
 30
0.0
 10
3072.682804184833
 20
1553.196619443808
 30
0.0
 10
3072.290853247016
 20
1555.743092383773
 30
0.0
 10
3071.531381171916
 20
1560.926877675468
 30
0.0
 10
3071.178171656719
 20
1563.415853546483
 30
0.0
 10
3070.321498122327
 20
1569.742162664001
 30
0.0
 10
3069.808449746393
 20
1573.747873419658
 30
0.0
 10
3068.828905303255
 20
1582.076001618374
 30
0.0
 10
3068.361987450089
 20
1586.349695141757
 30
0.0
 10
3067.292942241389
 20
1597.194363322409
 30
0.0
 10
3066.713546961493
 20
1603.994098192028
 30
0.0
 10
3065.871863712879
 20
1616.325640660869
 30
0.0
 10
3065.566060128205
 20
1621.706783846721
 30
0.0
 10
3065.130696730697
 20
1631.582764598436
 30
0.0
 10
3064.977931670064
 20
1636.036380151394
 30
0.0
 10
3064.711476237701
 20
1647.135857009458
 30
0.0
 10
3064.650623437889
 20
1653.826696451727
 30
0.0
 10
3064.712416885564
 20
1663.942857201635
 30
0.0
 10
3064.760384813249
 20
1667.383612352968
 30
0.0
 10
3064.834448614393
 20
1670.804103498661
 30
0.0
  0
SPLINE
  5
71B
330
1F
100
AcDbEntity
  8
Model
100
AcDbSpline
210
0.0
220
0.0
230
1.0
 70
     8
 71
     3
 72
    35
 73
    31
 74
     0
 42
0.000000001
 43
0.0000000001
 40
54.71175538786816
 40
54.71175538786816
 40
54.71175538786816
 40
54.71175538786816
 40
60.78146866103279
 40
60.78146866103279
 40
80.8216503141841
 40
80.8216503141841
 40
94.4149104345109
 40
94.4149104345109
 40
111.479138567626
 40
111.479138567626
 40
134.8352296402342
 40
134.8352296402342
 40
151.4426570108721
 40
151.4426570108721
 40
169.4367712103806
 40
169.4367712103806
 40
182.8250989107135
 40
182.8250989107135
 40
200.0521631017022
 40
200.0521631017022
 40
210.9556232367776
 40
210.9556232367776
 40
221.8590833718529
 40
221.8590833718529
 40
232.7625458532268
 40
232.7625458532268
 40
243.6660083346007
 40
243.6660083346007
 40
243.6660083346007
 40
243.6691845377233
 40
243.6691845377233
 40
243.6691845377233
 40
243.6691845377233
 10
2837.420655744127
 20
1670.804103498661
 30
0.0
 10
2837.449627167464
 20
1667.955658245849
 30
0.0
 10
2837.470040411068
 20
1665.100267611228
 30
0.0
 10
2837.520519950287
 20
1652.805401460114
 30
0.0
 10
2837.463746486186
 20
1643.338512707992
 30
0.0
 10
2837.214177943375
 20
1627.649149862198
 30
0.0
 10
2837.071279349212
 20
1621.362837276563
 30
0.0
 10
2836.663672721201
 20
1607.411947346857
 30
0.0
 10
2836.377085000966
 20
1599.805775885036
 30
0.0
 10
2835.587724296622
 20
1582.366972949838
 30
0.0
 10
2835.043954041898
 20
1572.747659638775
 30
0.0
 10
2834.040550987475
 20
1557.408121532764
 30
0.0
 10
2833.602338303173
 20
1551.364131387883
 30
0.0
 10
2832.683240558503
 20
1539.589981904886
 30
0.0
 10
2832.201955431387
 20
1533.928056055296
 30
0.0
 10
2831.397467853496
 20
1524.976860845973
 30
0.0
 10
2831.065356327838
 20
1521.451135977114
 30
0.0
 10
2830.351867627122
 20
1514.11496747114
 30
0.0
 10
2829.983848834489
 20
1510.513227304636
 30
0.0
 10
2829.464342869555
 20
1505.559908777191
 30
0.0
 10
2829.282890219003
 20
1503.867398597457
 30
0.0
 10
2828.966374286922
 20
1500.953600591076
 30
0.0
 10
2828.831320470401
 20
1499.732342198585
 30
0.0
 10
2828.612540676431
 20
1497.773334448808
 30
0.0
 10
2828.528820773869
 20
1497.035598959394
 30
0.0
 10
2828.415753488202
 20
1496.051057293362
 30
0.0
 10
2828.386407972458
 20
1495.804247152818
 30
0.0
 10
2828.384763620858
 20
1495.804103561398
 30
0.0
 10
2828.384763141857
 20
1495.804103519569
 30
0.0
 10
2828.384762665212
 20
1495.804103498697
 30
0.0
 10
2828.384762190928
 20
1495.804103498779
 30
0.0
  0
SPLINE
  5
71C
330
1F
100
AcDbEntity
  8
Model
100
AcDbSpline
210
0.0
220
0.0
230
1.0
 70
     8
 71
     3
 72
    35
 73
    31
 74
     0
 42
0.000000001
 43
0.0000000001
 40
958.8105567764721
 40
958.8105567764721
 40
958.8105567764721
 40
958.8105567764721
 40
958.8137326480271
 40
958.8137326480271
 40
958.8137326480271
 40
969.7094452369006
 40
969.7094452369006
 40
980.6051578257736
 40
980.6051578257736
 40
991.5008680683486
 40
991.5008680683486
 40
1002.396578310923
 40
1002.396578310923
 40
1019.623106423202
 40
1019.623106423202
 40
1032.990788353502
 40
1032.990788353502
 40
1050.99460575342
 40
1050.99460575342
 40
1067.59959856548
 40
1067.59959856548
 40
1090.943847773088
 40
1090.943847773088
 40
1108.012056287064
 40
1108.012056287064
 40
1121.626209430964
 40
1121.626209430964
 40
1141.648129348137
 40
1141.648129348137
 40
1147.767983673032
 40
1147.767983673032
 40
1147.767983673032
 40
1147.767983673032
 10
3027.384618189806
 20
1495.804103498779
 30
0.0
 10
3027.38461771557
 20
1495.804103498697
 30
0.0
 10
3027.38461723898
 20
1495.804103519565
 30
0.0
 10
3027.384616760027
 20
1495.804103561384
 30
0.0
 10
3027.382973578866
 20
1495.804247035766
 30
0.0
 10
3027.353668714541
 20
1496.050706272489
 30
0.0
 10
3027.240758792583
 20
1497.033851415929
 30
0.0
 10
3027.157155595198
 20
1497.77054126313
 30
0.0
 10
3026.938676741496
 20
1499.726783713728
 30
0.0
 10
3026.803807135459
 20
1500.946322499399
 30
0.0
 10
3026.487713449452
 20
1503.856041631834
 30
0.0
 10
3026.306498796295
 20
1505.546192660164
 30
0.0
 10
3025.78743707088
 20
1510.494718433066
 30
0.0
 10
3025.419583491921
 20
1514.094352400371
 30
0.0
 10
3024.706804176987
 20
1521.42202878065
 30
0.0
 10
3024.375310176714
 20
1524.94038625011
 30
0.0
 10
3023.571305401578
 20
1533.88310730938
 30
0.0
 10
3023.089799521486
 20
1539.545485366874
 30
0.0
 10
3022.170478008537
 20
1551.317930570463
 30
0.0
 10
3021.732266521349
 20
1557.359122735196
 30
0.0
 10
3020.72894679904
 20
1572.688889384023
 30
0.0
 10
3020.18517305907
 20
1582.300833898024
 30
0.0
 10
3019.395236958712
 20
1599.732410901433
 30
0.0
 10
3019.108234346326
 20
1607.339067736745
 30
0.0
 10
3018.699637329532
 20
1621.299520728955
 30
0.0
 10
3018.556264348705
 20
1627.595046422608
 30
0.0
 10
3018.306190742622
 20
1643.28500459595
 30
0.0
 10
3018.249079206353
 20
1652.743017107366
 30
0.0
 10
3018.299003436279
 20
1665.053091223365
 30
0.0
 10
3018.319513884961
 20
1667.932127693518
 30
0.0
 10
3018.348724636612
 20
1670.804103498662
 30
0.0
  0
LINE
  5
71D
330
1F
100
AcDbEntity
  8
Model
100
AcDbLine
 10
3064.834448614393
 20
1670.804103498661
 30
0.0
 11
3074.384690190369
 21
1670.804103498661
 31
0.0
  0
SPLINE
  5
71E
330
1F
100
AcDbEntity
  8
Model
100
AcDbSpline
210
0.0
220
0.0
230
1.0
 70
     8
 71
     3
 72
    14
 73
    10
 74
     0
 42
0.000000001
 43
0.0000000001
 40
0.0
 40
0.0
 40
0.0
 40
0.0
 40
18.62703937153684
 40
18.62703937153684
 40
37.10963996176035
 40
37.10963996176035
 40
51.98495209653042
 40
51.98495209653042
 40
66.84181884800974
 40
66.84181884800974
 40
66.84181884800974
 40
66.84181884800974
 10
3064.834448614393
 20
1670.804103498661
 30
0.0
 10
3063.856076493268
 20
1670.804103498661
 30
0.0
 10
3061.69193740087
 20
1670.804103498685
 30
0.0
 10
3055.243566319738
 20
1670.804103498685
 30
0.0
 10
3051.038170175058
 20
1670.804103498809
 30
0.0
 10
3042.070432718485
 20
1670.804103498809
 30
0.0
 10
3037.634194359316
 20
1670.804103498672
 30
0.0
 10
3028.218153604054
 20
1670.804103498672
 30
0.0
 10
3023.29932734182
 20
1670.804103498661
 30
0.0
 10
3018.348724636612
 20
1670.804103498661
 30
0.0
  0
LINE
  5
71F
330
1F
100
AcDbEntity
  8
Model
100
AcDbLine
 10
3018.348724636608
 20
1670.804103498661
 30
0.0
 11
2837.420655744123
 21
1670.804103498661
 31
0.0
  0
SPLINE
  5
720
330
1F
100
AcDbEntity
  8
Model
100
AcDbSpline
210
0.0
220
0.0
230
1.0
 70
    24
 71
     3
 72
    14
 73
    10
 74
     0
 42
0.000000001
 43
0.0000000001
 40
0.0
 40
0.0
 40
0.0
 40
0.0
 40
18.29831018103722
 40
18.29831018103722
 40
36.65190311427502
 40
36.65190311427502
 40
51.71109773970808
 40
51.71109773970808
 40
66.81777417306733
 40
66.81777417306733
 40
66.81777417306733
 40
66.81777417306733
 10
2837.420655744127
 20
1670.804103498661
 30
0.0
 10
2831.321219017113
 20
1670.804103498661
 30
0.0
 10
2825.281289034271
 20
1670.804103498658
 30
0.0
 10
2813.977163768739
 20
1670.804103498658
 30
0.0
 10
2808.825929204524
 20
1670.804103498616
 30
0.0
 10
2800.892548440954
 20
1670.804103498616
 30
0.0
 10
2797.902825110132
 20
1670.804103498641
 30
0.0
 10
2793.303930891469
 20
1670.804103498641
 30
0.0
 10
2791.728640505809
 20
1670.804103498661
 30
0.0
 10
2790.934931766342
 20
1670.804103498661
 30
0.0
  0
LINE
  5
721
330
1F
100
AcDbEntity
  8
Model
100
AcDbLine
 10
2781.38469019037
 20
1670.804103498661
 30
0.0
 11
2790.934931766346
 21
1670.804103498661
 31
0.0
  0
LINE
  5
722
330
1F
100
AcDbEntity
  8
Model
100
AcDbLine
 10
2781.38469019037
 20
1670.804103498661
 30
0.0
 11
2781.38469019037
 21
1542.804558065426
 31
0.0
  0
SPLINE
  5
723
330
1F
100
AcDbEntity
  8
Model
100
AcDbSpline
210
0.0
220
0.0
230
1.0
 70
     8
 71
     3
 72
    22
 73
    18
 74
     0
 42
0.000000001
 43
0.0000000001
 40
243.6691845377229
 40
243.6691845377229
 40
243.6691845377229
 40
243.6691845377229
 40
243.68547650456
 40
243.68547650456
 40
243.7018270721978
 40
243.7018270721978
 40
243.7216752259227
 40
243.7216752259227
 40
243.7503981873025
 40
243.7503981873025
 40
243.8009509446743
 40
243.8009509446743
 40
243.8652367459286
 40
243.8652367459286
 40
243.929522547183
 40
243.929522547183
 40
243.9906135439946
 40
243.9906135439946
 40
243.9906135439946
 40
243.9906135439946
 10
2828.384762191136
 20
1495.804103498655
 30
0.0
 10
2823.371423778676
 20
1495.804103498628
 30
0.0
 10
2818.105392052095
 20
1496.670728223023
 30
0.0
 10
2808.621027886186
 20
1499.867772156003
 30
0.0
 10
2804.445034492039
 20
1502.147667364816
 30
0.0
 10
2797.002544491634
 20
1507.458799761845
 30
0.0
 10
2794.073200260113
 20
1510.497465935226
 30
0.0
 10
2788.731090809104
 20
1517.080169140359
 30
0.0
 10
2787.032481422453
 20
1520.28514954003
 30
0.0
 10
2783.697262935797
 20
1527.40407723534
 30
0.0
 10
2783.051309720616
 20
1530.204334538303
 30
0.0
 10
2781.936537630774
 20
1535.093912863756
 30
0.0
 10
2781.757062295814
 20
1536.753891743179
 30
0.0
 10
2781.490900353392
 20
1539.38151632342
 30
0.0
 10
2781.44518818462
 20
1540.303647011022
 30
0.0
 10
2781.390455606028
 20
1541.776195781581
 30
0.0
 10
2781.38469019037
 20
1542.332866985943
 30
0.0
 10
2781.38469019037
 20
1542.804558065427
 30
0.0
  0
LINE
  5
724
330
1F
100
AcDbEntity
  8
Model
100
AcDbLine
 10
3074.384690190369
 20
1670.804103498661
 30
0.0
 11
3074.384690190369
 21
1542.804558065426
 31
0.0
  0
SPLINE
  5
725
330
1F
100
AcDbEntity
  8
Model
100
AcDbSpline
210
0.0
220
0.0
230
1.0
 70
     8
 71
     3
 72
    22
 73
    18
 74
     0
 42
0.000000001
 43
0.0000000001
 40
958.4891277695664
 40
958.4891277695664
 40
958.4891277695664
 40
958.4891277695664
 40
958.5534135709476
 40
958.5534135709476
 40
958.6176993723286
 40
958.6176993723286
 40
958.6819851737095
 40
958.6819851737095
 40
958.7462709750907
 40
958.7462709750907
 40
958.7644717114397
 40
958.7644717114397
 40
958.7897757310408
 40
958.7897757310408
 40
958.8067434976776
 40
958.8067434976776
 40
958.8105567764715
 40
958.8105567764715
 40
958.8105567764715
 40
958.8105567764715
 10
3074.384690190369
 20
1542.804558065434
 30
0.0
 10
3074.384690190369
 20
1542.308199510572
 30
0.0
 10
3074.378519028271
 20
1541.718427324858
 30
0.0
 10
3074.317244926194
 20
1540.171035406285
 30
0.0
 10
3074.267992440908
 20
1539.22461993897
 30
0.0
 10
3073.981636675542
 20
1536.512805557836
 30
0.0
 10
3073.790462648404
 20
1534.796497520113
 30
0.0
 10
3072.433041811108
 20
1529.083216993183
 30
0.0
 10
3071.825210454897
 20
1525.128668444446
 30
0.0
 10
3065.74525481451
 20
1515.53240022205
 30
0.0
 10
3064.000310382656
 20
1513.117487622583
 30
0.0
 10
3058.075763262636
 20
1506.857092777975
 30
0.0
 10
3053.035178142729
 20
1502.717379217641
 30
0.0
 10
3041.587946460406
 20
1497.721966115691
 30
0.0
 10
3036.238605533521
 20
1496.340396457688
 30
0.0
 10
3029.745462220401
 20
1495.848228527033
 30
0.0
 10
3028.558034344837
 20
1495.804103498661
 30
0.0
 10
3027.384618190097
 20
1495.804103498655
 30
0.0
  0
LINE
  5
726
330
1F
100
AcDbEntity
  8
Model
100
AcDbLine
 10
3027.384618189854
 20
1495.804103498655
 30
0.0
 11
2828.384762190881
 21
1495.804103498655
 31
0.0
  0
SPLINE
  5
727
330
1F
100
AcDbEntity
  8
Model
100
AcDbSpline
210
0.0
220
0.0
230
1.0
 70
     8
 71
     3
 72
    43
 73
    39
 74
     0
 42
0.000000001
 43
0.0000000001
 40
26.75226859987885
 40
26.75226859987885
 40
26.75226859987885
 40
26.75226859987885
 40
27.07097282874263
 40
27.07097282874263
 40
28.19914514826262
 40
28.19914514826262
 40
29.32731746778261
 40
29.32731746778261
 40
30.45548978730261
 40
30.45548978730261
 40
31.5836621068226
 40
31.5836621068226
 40
32.71057054220004
 40
32.71057054220004
 40
33.83747897757749
 40
33.83747897757749
 40
34.96438741295492
 40
34.96438741295492
 40
36.09129584833235
 40
36.09129584833235
 40
36.09129584833235
 40
37.21820428370979
 40
37.21820428370979
 40
38.34511271908723
 40
38.34511271908723
 40
39.47202115446468
 40
39.47202115446468
 40
40.59892958984209
 40
40.59892958984209
 40
41.7271019093621
 40
41.7271019093621
 40
42.85527422888208
 40
42.85527422888208
 40
43.98344654840207
 40
43.98344654840207
 40
45.11161886792208
 40
45.11161886792208
 40
45.43032309678554
 40
45.43032309678554
 40
45.43032309678554
 40
45.43032309678554
 10
3208.478598267276
 20
1918.416579593454
 30
0.0
 10
3208.472807581399
 20
1918.524517177402
 30
0.0
 10
3208.470005293742
 20
1918.631773440711
 30
0.0
 10
3208.470208078142
 20
1919.114065538242
 30
0.0
 10
3208.506579145338
 20
1919.502872429157
 30
0.0
 10
3208.65932438962
 20
1920.276051545197
 30
0.0
 10
3208.775665652524
 20
1920.660430273796
 30
0.0
 10
3209.083088865183
 20
1921.397356206491
 30
0.0
 10
3209.274417620344
 20
1921.750496716979
 30
0.0
 10
3209.716290896587
 20
1922.403243187154
 30
0.0
 10
3209.966862058744
 20
1922.702831126002
 30
0.0
 10
3210.500205007059
 20
1923.232527831698
 30
0.0
 10
3210.801141238686
 20
1923.480795275101
 30
0.0
 10
3211.456053699992
 20
1923.91821036474
 30
0.0
 10
3211.810011204683
 20
1924.107386065862
 30
0.0
 10
3212.548008587481
 20
1924.411096479967
 30
0.0
 10
3212.932629283448
 20
1924.52587082951
 30
0.0
 10
3213.705795011986
 20
1924.676381289157
 30
0.0
 10
3214.094346242158
 20
1924.71208556672
 30
0.0
 10
3214.469982387284
 20
1924.71208556672
 30
0.0
 10
3214.84561853241
 20
1924.71208556672
 30
0.0
 10
3215.23416976258
 20
1924.676381289157
 30
0.0
 10
3216.007335491119
 20
1924.52587082951
 30
0.0
 10
3216.391956187087
 20
1924.411096479967
 30
0.0
 10
3217.129953569884
 20
1924.107386065862
 30
0.0
 10
3217.483911074574
 20
1923.91821036474
 30
0.0
 10
3218.138823535881
 20
1923.480795275101
 30
0.0
 10
3218.439759767508
 20
1923.232527831698
 30
0.0
 10
3218.973102715823
 20
1922.702831126002
 30
0.0
 10
3219.223673877979
 20
1922.403243187154
 30
0.0
 10
3219.665547154221
 20
1921.750496716983
 30
0.0
 10
3219.856875909383
 20
1921.397356206495
 30
0.0
 10
3220.164299122043
 20
1920.660430273796
 30
0.0
 10
3220.280640384947
 20
1920.276051545197
 30
0.0
 10
3220.433385629228
 20
1919.502872429157
 30
0.0
 10
3220.469756696424
 20
1919.114065538242
 30
0.0
 10
3220.469959480825
 20
1918.631773440711
 30
0.0
 10
3220.467157193168
 20
1918.524517177404
 30
0.0
 10
3220.46136650729
 20
1918.416579593454
 30
0.0
  0
SPLINE
  5
728
330
1F
100
AcDbEntity
  8
Model
100
AcDbSpline
210
0.0
220
0.0
230
1.0
 70
     8
 71
     3
 72
    38
 73
    34
 74
     0
 42
0.000000001
 43
0.0000000001
 40
9.339027248453179
 40
9.339027248453179
 40
9.339027248453179
 40
9.339027248453179
 40
10.14885915991521
 40
10.14885915991521
 40
11.2773953002407
 40
11.2773953002407
 40
12.40593144056619
 40
12.40593144056619
 40
13.53446758089168
 40
13.53446758089168
 40
14.6622626667103
 40
14.6622626667103
 40
15.79005775252892
 40
15.79005775252892
 40
16.91785283834755
 40
16.91785283834755
 40
18.04564792416618
 40
18.04564792416618
 40
19.1734430099848
 40
19.1734430099848
 40
20.30123809580343
 40
20.30123809580343
 40
21.42903318162205
 40
21.42903318162205
 40
22.55682826744068
 40
22.55682826744068
 40
23.68536440776617
 40
23.68536440776617
 40
24.81390054809165
 40
24.81390054809165
 40
25.94243668841714
 40
25.94243668841714
 40
26.75226859987885
 40
26.75226859987885
 40
26.75226859987885
 40
26.75226859987885
 10
3220.46136650729
 20
1918.416579593454
 30
0.0
 10
3220.446652293332
 20
1918.142308680138
 30
0.0
 10
3220.412516047645
 20
1917.86364541058
 30
0.0
 10
3220.281816041693
 20
1917.199335107058
 30
0.0
 10
3220.165726844026
 20
1916.814752164804
 30
0.0
 10
3219.858739049596
 20
1916.077383819667
 30
0.0
 10
3219.66759385076
 20
1915.724004406214
 30
0.0
 10
3219.22601094318
 20
1915.070768355714
 30
0.0
 10
3218.975546541135
 20
1914.770929751974
 30
0.0
 10
3218.442219116159
 20
1914.240623647575
 30
0.0
 10
3218.141178762845
 20
1913.992010210914
 30
0.0
 10
3217.485968107717
 20
1913.553979283164
 30
0.0
 10
3217.131816616344
 20
1913.364533638261
 30
0.0
 10
3216.393365681418
 20
1913.060384235085
 30
0.0
 10
3216.008484312676
 20
1912.945440179284
 30
0.0
 10
3215.234761626062
 20
1912.79470397745
 30
0.0
 10
3214.845914082557
 20
1912.758943783889
 30
0.0
 10
3214.09405069201
 20
1912.758943783889
 30
0.0
 10
3213.705203148506
 20
1912.794703977452
 30
0.0
 10
3212.931480461891
 20
1912.945440179284
 30
0.0
 10
3212.54659909315
 20
1913.060384235081
 30
0.0
 10
3211.808148158223
 20
1913.364533638259
 30
0.0
 10
3211.45399666685
 20
1913.553979283164
 30
0.0
 10
3210.798786011724
 20
1913.992010210914
 30
0.0
 10
3210.497745658408
 20
1914.240623647575
 30
0.0
 10
3209.96441823343
 20
1914.770929751974
 30
0.0
 10
3209.713953831388
 20
1915.070768355714
 30
0.0
 10
3209.272370923808
 20
1915.724004406214
 30
0.0
 10
3209.081225724971
 20
1916.077383819667
 30
0.0
 10
3208.774237930542
 20
1916.814752164804
 30
0.0
 10
3208.658148732873
 20
1917.199335107061
 30
0.0
 10
3208.527448726922
 20
1917.863645410582
 30
0.0
 10
3208.493312481234
 20
1918.142308680138
 30
0.0
 10
3208.478598267276
 20
1918.416579593454
 30
0.0
  0
CIRCLE
  5
729
330
1F
100
AcDbEntity
  8
Model
100
AcDbCircle
 10
3214.469982387284
 20
1918.738008164886
 30
0.0
 40
5.5
  0
CIRCLE
  5
72A
330
1F
100
AcDbEntity
  8
Model
100
AcDbCircle
 10
3214.469982387284
 20
1918.738008164886
 30
0.0
 40
4.5
  0
CIRCLE
  5
72B
330
1F
100
AcDbEntity
  8
Model
100
AcDbCircle
 10
3214.469982387284
 20
1918.738008164886
 30
0.0
 40
5.0
  0
CIRCLE
  5
72C
330
1F
100
AcDbEntity
  8
Model
100
AcDbCircle
 10
3214.469982387284
 20
1918.738008164886
 30
0.0
 40
1.5
  0
SPLINE
  5
72D
330
1F
100
AcDbEntity
  8
Model
100
AcDbSpline
210
0.0000000000001495
220
-0.000000000000223
230
1.0
 70
     8
 71
     3
 72
    43
 73
    39
 74
     0
 42
0.000000001
 43
0.0000000001
 40
26.75226859987885
 40
26.75226859987885
 40
26.75226859987885
 40
26.75226859987885
 40
27.07097282874263
 40
27.07097282874263
 40
28.19914514826262
 40
28.19914514826262
 40
29.32731746778261
 40
29.32731746778261
 40
30.45548978730261
 40
30.45548978730261
 40
31.5836621068226
 40
31.5836621068226
 40
32.71057054220004
 40
32.71057054220004
 40
33.83747897757749
 40
33.83747897757749
 40
34.96438741295492
 40
34.96438741295492
 40
36.09129584833235
 40
36.09129584833235
 40
36.09129584833235
 40
37.21820428370979
 40
37.21820428370979
 40
38.34511271908723
 40
38.34511271908723
 40
39.47202115446468
 40
39.47202115446468
 40
40.59892958984209
 40
40.59892958984209
 40
41.7271019093621
 40
41.7271019093621
 40
42.85527422888208
 40
42.85527422888208
 40
43.98344654840207
 40
43.98344654840207
 40
45.11161886792208
 40
45.11161886792208
 40
45.43032309678554
 40
45.43032309678554
 40
45.43032309678554
 40
45.43032309678554
 10
3556.605867450776
 20
1617.021050085057
 30
0.0000000000013195
 10
3556.601772817524
 20
1617.111544790912
 30
0.000000000002229
 10
3556.59980749823
 20
1617.200272543856
 30
0.000000000002229
 10
3556.600094278677
 20
1617.594062392497
 30
0.0000000000031385
 10
3556.626129544401
 20
1617.896856505233
 30
0.0000000000035932
 10
3556.735190095274
 20
1618.46640477862
 30
0.000000000002229
 10
3556.818191563622
 20
1618.733177373016
 30
0.0000000000035932
 10
3557.037353243849
 20
1619.210397930498
 30
0.000000000002229
 10
3557.173687961024
 20
1619.421229561138
 30
0.0000000000026837
 10
3557.488349539151
 20
1619.775076749829
 30
0.0000000000013195
 10
3557.666693156221
 20
1619.918065515727
 30
0.000000000004048
 10
3558.046053497323
 20
1620.13411216615
 30
0.0000000000013195
 10
3558.259992286635
 20
1620.214625898243
 30
0.0000000000008648
 10
3558.725222815268
 20
1620.305641008859
 30
0.0000000000017742
 10
3558.976499281506
 20
1620.31617176507
 30
0.0000000000013195
 10
3559.499983611126
 20
1620.263811758613
 30
0.00000000000041
 10
3559.772602063028
 20
1620.200879475976
 30
0.00000000000041
 10
3560.32017381344
 20
1620.008624275327
 30
0.0000000000026837
 10
3560.595130970194
 20
1619.8792725334
 30
0.000000000002229
 10
3560.860745835674
 20
1619.725919719319
 30
0.00000000000041
 10
3561.126360701152
 20
1619.572566905234
 30
0.00000000000041
 10
3561.40089796378
 20
1619.38466789621
 30
-0.0000000000000447
 10
3561.946747672635
 20
1618.945635923014
 30
0.0000000000017742
 10
3562.218065025331
 20
1618.694526722441
 30
0.00000000000041
 10
3562.738266603464
 20
1618.14431438911
 30
-0.000000000001409
 10
3562.98756164086
 20
1617.844778540526
 30
0.0000000000013195
 10
3563.448517197171
 20
1617.219029644445
 30
0.0000000000026837
 10
3563.660166508037
 20
1616.892802508153
 30
0.0000000000008648
 10
3564.035066997835
 20
1616.241283163968
 30
0.0000000000008648
 10
3564.211084516631
 20
1615.893703900891
 30
-0.0000000000004995
 10
3564.521326118621
 20
1615.179068692948
 30
0.0000000000013195
 10
3564.655571121861
 20
1614.812017787883
 30
-0.0000000000000447
 10
3564.871171518367
 20
1614.083787228364
 30
0.0000000000026837
 10
3564.952701441881
 20
1613.722022390589
 30
0.0000000000017742
 10
3565.059655287055
 20
1613.027758147491
 30
0.0000000000031385
 10
3565.085056477844
 20
1612.695267182745
 30
-0.0000000000000447
 10
3565.08505647784
 20
1612.301311761332
 30
0.0000000000008648
 10
3565.083058763928
 20
1612.214872066684
 30
-0.000000000001409
 10
3565.078964130677
 20
1612.129105436047
 30
0.0000000000017742
  0
SPLINE
  5
72E
330
1F
100
AcDbEntity
  8
Model
100
AcDbSpline
210
-0.0000000000000841
220
-0.0000000000000527
230
1.0
 70
     8
 71
     3
 72
    38
 73
    34
 74
     0
 42
0.000000001
 43
0.0000000001
 40
9.339027248453179
 40
9.339027248453179
 40
9.339027248453179
 40
9.339027248453179
 40
10.14885915991521
 40
10.14885915991521
 40
11.2773953002407
 40
11.2773953002407
 40
12.40593144056619
 40
12.40593144056619
 40
13.53446758089168
 40
13.53446758089168
 40
14.6622626667103
 40
14.6622626667103
 40
15.79005775252892
 40
15.79005775252892
 40
16.91785283834755
 40
16.91785283834755
 40
18.04564792416618
 40
18.04564792416618
 40
19.1734430099848
 40
19.1734430099848
 40
20.30123809580343
 40
20.30123809580343
 40
21.42903318162205
 40
21.42903318162205
 40
22.55682826744068
 40
22.55682826744068
 40
23.68536440776617
 40
23.68536440776617
 40
24.81390054809165
 40
24.81390054809165
 40
25.94243668841714
 40
25.94243668841714
 40
26.75226859987885
 40
26.75226859987885
 40
26.75226859987885
 40
26.75226859987885
 10
3565.078964130677
 20
1612.129105436047
 30
0.0000000000017742
 10
3565.068559610204
 20
1611.91117122577
 30
0.0000000000013195
 10
3565.04452741193
 20
1611.697640750689
 30
-0.0000000000000447
 10
3564.952618849136
 20
1611.208886333705
 30
-0.000000000001409
 10
3564.871039116559
 20
1610.942562028688
 30
0.0000000000013195
 10
3564.655309936119
 20
1610.466606480139
 30
0.0000000000008648
 10
3564.520985751491
 20
1610.256590694444
 30
-0.0000000000009542
 10
3564.210563753942
 20
1609.904554403056
 30
-0.0000000000004995
 10
3564.034444993299
 20
1609.762558322319
 30
0.0000000000008648
 10
3563.65924392634
 20
1609.548402783229
 30
0.0000000000017742
 10
3563.447375458621
 20
1609.468886864558
 30
-0.0000000000009542
 10
3562.98595300423
 20
1609.379810991153
 30
0.0000000000017742
 10
3562.736410264245
 20
1609.37021918355
 30
0.0000000000017742
 10
3562.215710695705
 20
1609.424198863254
 30
0.0000000000013195
 10
3561.94414212989
 20
1609.487811571757
 30
-0.0000000000004995
 10
3561.397810916787
 20
1609.681053433592
 30
0.0000000000008648
 10
3561.123043359882
 20
1609.810710924646
 30
0.0000000000013195
 10
3560.591395657902
 20
1610.1176578685
 30
0.000000000002229
 10
3560.316249745083
 20
1610.305493067221
 30
0.0000000000017742
 10
3559.768371841258
 20
1610.74399313359
 30
0.0000000000035932
 10
3559.495635955499
 20
1610.994634746724
 30
0.0000000000013195
 10
3558.972008196709
 20
1611.543597730572
 30
0.0000000000017742
 10
3558.720705094466
 20
1611.842353020014
 30
0.00000000000041
 10
3558.255519754165
 20
1612.466406153115
 30
0.0000000000017742
 10
3558.041652871404
 20
1612.791720490992
 30
0.0000000000008648
 10
3557.662615060777
 20
1613.44133604909
 30
0.00000000000041
 10
3557.48452366716
 20
1613.78783545774
 30
0.00000000000041
 10
3557.170453127902
 20
1614.50042268336
 30
0.0000000000008648
 10
3557.034457179951
 20
1614.866507870368
 30
0.00000000000041
 10
3556.816040058023
 20
1615.593117903455
 30
0.000000000002229
 10
3556.733444872806
 20
1615.954228641452
 30
0.0000000000031385
 10
3556.640515714593
 20
1616.549699166425
 30
-0.0000000000004995
 10
3556.616271971247
 20
1616.791101769392
 30
0.0000000000017742
 10
3556.605867450776
 20
1617.021050085057
 30
0.0000000000013195
  0
ELLIPSE
  5
72F
330
1F
100
AcDbEntity
  8
Model
100
AcDbEllipse
 10
3561.195969181316
 20
1615.04164723537
 30
0.0000000000017742
 11
-2.749999999999998
 21
4.763139720814412
 31
-0.0000000000000003
210
0.0000000000000002
220
0.0000000000000002
230
1.0
 40
0.5773502691896259
 41
5.540010019251759
 42
10.1657149458906
  0
ELLIPSE
  5
730
330
1F
100
AcDbEntity
  8
Model
100
AcDbEllipse
 10
3560.842415790724
 20
1614.837523090137
 30
0.0000000000035932
 11
-2.249999999999999
 21
3.897114317029971
 31
0.0
210
0.0000000000000002
220
0.0000000000000001
230
1.0
 40
0.577350269189626
 41
0.0
 42
6.283185307179585
  0
ELLIPSE
  5
731
330
1F
100
AcDbEntity
  8
Model
100
AcDbEllipse
 10
3561.195969181316
 20
1615.04164723537
 30
0.0000000000017742
 11
-2.499999999999999
 21
4.330127018922194
 31
-0.0000000000000003
210
0.0000000000000001
220
0.0000000000000001
230
1.0
 40
0.577350269189626
 41
2.356194490192526
 42
3.926990816987058
  0
ELLIPSE
  5
732
330
1F
100
AcDbEntity
  8
Model
100
AcDbEllipse
 10
3561.195969181316
 20
1615.04164723537
 30
0.0000000000017742
 11
-2.499999999999999
 21
4.330127018922194
 31
-0.0000000000000003
210
0.0000000000000001
220
0.0000000000000001
230
1.0
 40
0.577350269189626
 41
3.926990816987058
 42
7.068583470577033
  0
ELLIPSE
  5
733
330
1F
100
AcDbEntity
  8
Model
100
AcDbEllipse
 10
3561.195969181316
 20
1615.04164723537
 30
0.0000000000017742
 11
0.75
 21
-1.299038105676656
 31
0.0
210
0.0000000000000001
220
0.0000000000000001
230
1.0
 40
0.577350269189626
 41
3.926990816987089
 42
6.045244182350247
  0
ELLIPSE
  5
734
330
1F
100
AcDbEntity
  8
Model
100
AcDbEllipse
 10
3561.195969181316
 20
1615.04164723537
 30
0.0000000000017742
 11
0.75
 21
-1.299038105676656
 31
0.0
210
0.0000000000000001
220
0.0000000000000001
230
1.0
 40
0.577350269189626
 41
3.379533778420352
 42
3.926990816987089
  0
ELLIPSE
  5
735
330
1F
100
AcDbEntity
  8
Model
100
AcDbEllipse
 10
3560.842415790724
 20
1614.837523090137
 30
0.0000000000035932
 11
0.75
 21
-1.299038105676656
 31
0.0
210
0.0000000000000001
220
0.0000000000000001
230
1.0
 40
0.577350269189626
 41
0.0
 42
6.283185307179585
  0
LINE
  5
736
330
1F
100
AcDbEntity
  8
Model
100
AcDbLine
 10
3557.660435275386
 20
1616.674640397224
 30
0.000000000002229
 11
3557.660435275388
 21
1617.082888687689
 31
-0.0000000000018637
210
0.0000000000000001
220
0.8164965809277259
230
0.5773502691896259
  0
LINE
  5
737
330
1F
100
AcDbEntity
  8
Model
100
AcDbLine
 10
3560.842415790724
 20
1611.163288475962
 30
0.0000000000026837
 11
3561.195969181321
 21
1610.959164330731
 31
-0.0000000000018637
210
0.0000000000000001
220
0.8164965809277259
230
0.5773502691896259
  0
HATCH
  5
74B
330
1F
100
AcDbEntity
  8
AM_8
 62
    18
420
        0
100
AcDbHatch
 10
0.0
 20
0.0
 30
0.0
210
0.0
220
0.0
230
1.0
  2
SOLID
 70
     1
 71
     0
 91
        1
 92
        1
 93
        4
 72
     1
 10
2706.950514923583
 20
1318.507970128641
 11
2863.782360435415
 21
1318.507970128641
 72
     1
 10
2863.782360435415
 20
1318.507970128641
 11
2863.782360435415
 21
1466.664341827226
 72
     1
 10
2863.782360435415
 20
1466.664341827226
 11
2706.950514923583
 21
1466.664341827226
 72
     1
 10
2706.950514923583
 20
1466.664341827226
 11
2706.950514923583
 21
1318.507970128641
 97
        0
 75
     0
 76
     1
 98
        1
 10
388.9985916031351
 20
-98.7813507714052
450
        0
451
        0
460
0.0
461
0.0
452
        0
462
0.0
453
        0
470

1001
GENIUS_GENODEF_13
1002
{
1000
HIER
1070
     0
1002
}
1002
{
1000
MANEDIT
1070
     0
1002
}
1002
{
1000
NOSEL
1070
     0
1002
}
1002
{
1000
BEHIND
1070
     0
1002
}
1002
{
1000
OTHER
1070
     0
1002
}
1002
{
1000
REACTOR
1002
}
1001
GENIUS_GENOBJ-N-HTC_13
1002
{
1000
OWNER
1000
GEN
1002
}
1001
GENIUS_GENHATCH_13
1002
{
1000
DATA
1040
45.0
1042
2.5
1000
_U
1070
     0
1011
2792.717930889498
1021
1416.870739448793
1031
0.0
1002
}
1002
{
1000
UCS
1010
0.0
1020
0.0
1030
0.0
1010
1.0
1020
0.0
1030
0.0
1010
0.0
1020
1.0
1030
0.0
1002
}
1001
ACAD
1010
0.0
1020
0.0
1030
0.0
  0
MTEXT
  5
74C
330
1F
100
AcDbEntity
  8
0
100
AcDbMText
 10
2740.806338180841
 20
1410.089553632644
 30
0.0
 40
25.0
 41
102.9208977138751
 46
0.0
 71
     1
 72
     5
  1
impeco
 73
     1
 44
1.0
1001
ACAD
1000
ACAD_MTEXT_COLUMN_INFO_BEGIN
1070
    75
1070
     2
1070
    79
1070
     0
1070
    76
1070
     1
1070
    78
1070
     0
1070
    48
1040
102.9208977138751
1070
    49
1040
12.5
1070
    50
1070
     1
1040
0.0
1000
ACAD_MTEXT_COLUMN_INFO_END
  0
SOLID
  5
7D0
330
1F
100
AcDbEntity
  8
Wymiary
100
AcDbTrace
 10
422.4221290193758
 20
2092.150007412808
 30
-3174.742154503294
 11
425.9576629253106
 21
2095.685541318742
 31
-3174.742154503294
 12
434.7964976901448
 22
2083.311172647978
 32
-3174.742154503294
 13
434.7964976901448
 23
2083.311172647978
 33
-3174.742154503294
210
-0.7071067811865622
220
-0.4082482904638554
230
0.5773502691896132
  0
SOLID
  5
7D1
330
1F
100
AcDbEntity
  8
Wymiary
100
AcDbTrace
 10
217.3611624752741
 20
2297.210973956913
 30
-3174.742154503304
 11
220.8966963812052
 21
2300.746507862844
 31
-3174.742154503304
 12
208.5223277104439
 22
2309.585342627677
 32
-3174.742154503304
 13
208.5223277104439
 23
2309.585342627677
 33
-3174.742154503304
210
-0.7071067811865622
220
-0.4082482904638554
230
0.5773502691896132
  0
SOLID
  5
7D2
330
1F
100
AcDbEntity
  8
Wymiary
100
AcDbTrace
 10
-3512.774375902027
 20
-998.2022394696347
 30
1485.675905548174
 11
-3516.309909807958
 21
-994.6667055637055
 31
1485.675905548174
 12
-3503.935541137194
 22
-985.8278707988738
 32
1485.675905548174
 13
-3503.935541137194
 23
-985.8278707988738
 33
1485.675905548174
210
-0.0000000000000144
220
0.8164965809277337
230
0.5773502691896151
  0
SOLID
  5
7D3
330
1F
100
AcDbEntity
  8
Wymiary
100
AcDbTrace
 10
-3698.743459354074
 20
-1184.171322921688
 30
1485.675905548171
 11
-3702.278993260005
 21
-1180.635789015757
 31
1485.675905548171
 12
-3711.117828024838
 22
-1193.01015768652
 32
1485.675905548171
 13
-3711.117828024838
 23
-1193.01015768652
 33
1485.675905548171
210
-0.0000000000000144
220
0.8164965809277337
230
0.5773502691896151
  0
SOLID
  5
7D4
330
1F
100
AcDbEntity
  8
Wymiary
100
AcDbTrace
 10
-3819.781269022314
 20
-1183.593498588081
 30
1485.675905548169
 11
-3816.245735116379
 21
-1180.057964682145
 31
1485.675905548169
 12
-3807.40690035155
 22
-1192.432333352913
 32
1485.675905548169
 13
-3807.40690035155
 23
-1192.432333352913
 33
1485.675905548169
210
-0.0000000000000144
220
0.8164965809277337
230
0.5773502691896151
  0
SOLID
  5
7D5
330
1F
100
AcDbEntity
  8
Wymiary
100
AcDbTrace
 10
-3922.311752294356
 20
-1081.063015316031
 30
1485.675905548167
 11
-3918.776218388425
 21
-1077.527481410096
 31
1485.675905548167
 12
-3931.150587059196
 22
-1068.688646645263
 32
1485.675905548167
 13
-3931.150587059196
 23
-1068.688646645263
 33
1485.675905548167
210
-0.0000000000000144
220
0.8164965809277337
230
0.5773502691896151
  0
LINE
  5
7D6
330
1F
100
AcDbEntity
  8
0
100
AcDbLine
 10
3512.774375901996
 20
1789.36162891033
 30
42.72666839539969
 11
3503.935541137162
 21
1782.217283827215
 31
52.83029810621512
  0
LINE
  5
7D7
330
1F
100
AcDbEntity
  8
0
100
AcDbLine
 10
3503.935541137162
 20
1782.217283827215
 30
52.83029810621512
 11
3516.309909807927
 21
1787.320387458013
 31
45.61341974134498
  0
LINE
  5
7D8
330
1F
100
AcDbEntity
  8
0
100
AcDbLine
 10
3516.309909807927
 20
1787.320387458013
 30
45.61341974134498
 11
3512.774375901996
 21
1789.36162891033
 31
42.72666839539969
  0
LINE
  5
7D9
330
1F
100
AcDbEntity
  8
0
100
AcDbLine
 10
3503.935541137166
 20
1782.217283827219
 30
52.83029810621019
 11
3502.167774184199
 21
1770.990455839464
 31
42.72666839539594
  0
LINE
  5
7DA
330
1F
100
AcDbEntity
  8
0
100
AcDbLine
 10
3502.167774184199
 20
1770.990455839464
 30
42.72666839539594
 11
3505.703308090131
 21
1768.949214387145
 31
45.61341974134249
  0
LINE
  5
7DB
330
1F
100
AcDbEntity
  8
0
100
AcDbLine
 10
3505.703308090131
 20
1768.949214387145
 30
45.61341974134249
 11
3503.935541137167
 21
1782.217283827217
 31
52.83029810621186
  0
LINE
  5
7DC
330
1F
100
AcDbEntity
  8
0
100
AcDbLine
 10
3502.16777418419
 20
1534.206447370416
 30
-124.7049096695961
 11
3503.935541137159
 21
1520.938377930332
 31
-131.9217880344677
  0
LINE
  5
7DD
330
1F
100
AcDbEntity
  8
0
100
AcDbLine
 10
3503.935541137159
 20
1520.938377930332
 30
-131.9217880344677
 11
3505.703308090125
 21
1532.165205918095
 31
-121.8181583236462
  0
LINE
  5
7DE
330
1F
100
AcDbEntity
  8
0
100
AcDbLine
 10
3505.703308090125
 20
1532.165205918095
 30
-121.8181583236462
 11
3502.16777418419
 21
1534.206447370416
 31
-124.7049096695961
  0
LINE
  5
7DF
330
1F
100
AcDbEntity
  8
0
100
AcDbLine
 10
3711.117828024805
 20
1901.834032933119
 30
-116.333330766338
 11
3698.743459354041
 21
1896.73092930232
 31
-109.1164524014677
  0
LINE
  5
7E0
330
1F
100
AcDbEntity
  8
0
100
AcDbLine
 10
3698.743459354041
 20
1896.73092930232
 30
-109.1164524014677
 11
3702.278993259972
 21
1894.689687850002
 31
-106.2297010555205
  0
LINE
  5
7E1
330
1F
100
AcDbEntity
  8
0
100
AcDbLine
 10
3702.278993259972
 20
1894.689687850002
 30
-106.2297010555205
 11
3711.117828024811
 21
1901.834032933121
 31
-116.3333307663412
  0
LINE
  5
7E2
330
1F
100
AcDbEntity
  8
0
100
AcDbLine
 10
3807.406900351516
 20
1901.500425898566
 30
-115.8615391735725
 11
3816.245735116345
 21
1894.356080815447
 31
-105.7579094627512
  0
LINE
  5
7E3
330
1F
100
AcDbEntity
  8
0
100
AcDbLine
 10
3816.245735116345
 20
1894.356080815447
 30
-105.7579094627512
 11
3819.781269022281
 21
1896.397322267768
 31
-108.644660808702
  0
LINE
  5
7E4
330
1F
100
AcDbEntity
  8
0
100
AcDbLine
 10
3819.781269022281
 20
1896.397322267768
 30
-108.644660808702
 11
3807.406900351516
 21
1901.500425898566
 31
-115.8615391735725
  0
LINE
  5
7E5
330
1F
100
AcDbEntity
  8
0
100
AcDbLine
 10
3922.311752294323
 20
1837.20132015051
 30
-24.92887177620636
 11
3918.776218388392
 21
1835.160078698189
 31
-22.04212043025549
  0
LINE
  5
7E6
330
1F
100
AcDbEntity
  8
0
100
AcDbLine
 10
3918.776218388392
 20
1835.160078698189
 30
-22.04212043025549
 11
3931.150587059163
 21
1830.05697506739
 31
-14.82524206538434
  0
LINE
  5
7E7
330
1F
100
AcDbEntity
  8
0
100
AcDbLine
 10
3931.150587059163
 20
1830.05697506739
 30
-14.82524206538434
 11
3922.311752294323
 21
1837.20132015051
 31
-24.92887177620636
  0
HATCH
  5
7E8
330
1F
100
AcDbEntity
  8
AM_8
 62
     0
100
AcDbHatch
 10
0.0
 20
0.0
 30
-41.66521248137732
210
0.0
220
0.0
230
1.0
  2
SOLID
 70
     1
 71
     0
 91
        1
 92
        1
 93
        4
 72
     1
 10
3920.543985341358
 20
1836.180699424358
 11
3918.776218388392
 21
1835.160078698189
 72
     1
 10
3918.776218388392
 20
1835.160078698189
 11
3931.150587059163
 21
1830.05697506739
 72
     1
 10
3931.150587059163
 20
1830.05697506739
 11
3922.311752294324
 21
1837.20132015051
 72
     1
 10
3922.311752294323
 20
1837.20132015051
 11
3920.543985341357
 21
1836.180699424358
 97
        0
 75
     0
 76
     1
 98
        1
 10
574.6171938289194
 20
30.10687663950034
450
        0
451
        0
460
0.0
461
0.0
452
        0
462
0.0
453
        0
470

1001
GENIUS_GENODEF_13
1002
{
1000
HIER
1070
     0
1002
}
1002
{
1000
MANEDIT
1070
     0
1002
}
1002
{
1000
NOSEL
1070
     0
1002
}
1002
{
1000
BEHIND
1070
     0
1002
}
1002
{
1000
OTHER
1070
     0
1002
}
1002
{
1000
REACTOR
1002
}
1001
GENIUS_GENOBJ-N-HTC_13
1002
{
1000
OWNER
1000
GEN
1002
}
1001
GENIUS_GENHATCH_13
1002
{
1000
DATA
1040
45.0
1042
2.5
1000
_U
1070
     0
1011
3923.611030937259
1021
1835.007722521193
1031
-41.66521248137732
1002
}
1002
{
1000
UCS
1010
0.0
1020
0.0
1030
0.0
1010
1.0
1020
0.0
1030
0.0
1010
0.0
1020
1.0
1030
0.0
1002
}
1001
ACAD
1010
0.0
1020
0.0
1030
0.0
  0
HATCH
  5
7E9
330
1F
100
AcDbEntity
  8
AM_8
 62
     0
100
AcDbHatch
 10
0.0
 20
0.0
 30
-9.910947675943603
210
0.0
220
0.0
230
1.0
  2
SOLID
 70
     1
 71
     0
 91
        1
 92
        1
 93
        3
 72
     1
 10
3816.245735116345
 20
1894.356080815447
 11
3819.781269022281
 21
1896.397322267768
 72
     1
 10
3819.781269022281
 20
1896.397322267768
 11
3807.406900351516
 21
1901.500425898566
 72
     1
 10
3807.406900351516
 20
1901.500425898566
 11
3816.245735116346
 21
1894.356080815447
 97
        0
 75
     0
 76
     1
 98
        1
 10
613.5080667941807
 20
7.653220663986303
450
        0
451
        0
460
0.0
461
0.0
452
        0
462
0.0
453
        0
470

1001
GENIUS_GENODEF_13
1002
{
1000
HIER
1070
     0
1002
}
1002
{
1000
MANEDIT
1070
     0
1002
}
1002
{
1000
NOSEL
1070
     0
1002
}
1002
{
1000
BEHIND
1070
     0
1002
}
1002
{
1000
OTHER
1070
     0
1002
}
1002
{
1000
REACTOR
1002
}
1001
GENIUS_GENOBJ-N-HTC_13
1002
{
1000
OWNER
1000
GEN
1002
}
1001
GENIUS_GENHATCH_13
1002
{
1000
DATA
1040
45.0
1042
2.5
1000
_U
1070
     0
1011
3816.754319079745
1021
1896.247171421143
1031
-9.910947675943603
1002
}
1002
{
1000
UCS
1010
0.0
1020
0.0
1030
0.0
1010
1.0
1020
0.0
1030
0.0
1010
0.0
1020
1.0
1030
0.0
1002
}
1001
ACAD
1010
0.0
1020
0.0
1030
0.0
  0
HATCH
  5
7EA
330
1F
100
AcDbEntity
  8
AM_8
 62
     0
100
AcDbHatch
 10
0.0
 20
0.0
 30
-11.54355933150624
210
0.0
220
0.0
230
1.0
  2
SOLID
 70
     1
 71
     0
 91
        1
 92
        1
 93
        3
 72
     1
 10
3702.278993259972
 20
1894.689687850002
 11
3711.117828024804
 21
1901.834032933119
 72
     1
 10
3711.117828024805
 20
1901.834032933119
 11
3698.743459354041
 21
1896.73092930232
 72
     1
 10
3698.743459354041
 20
1896.73092930232
 11
3702.278993259973
 21
1894.689687850002
 97
        0
 75
     0
 76
     1
 98
        1
 10
607.0307592418217
 20
8.807651436677815
450
        0
451
        0
460
0.0
461
0.0
452
        0
462
0.0
453
        0
470

1001
GENIUS_GENODEF_13
1002
{
1000
HIER
1070
     0
1002
}
1002
{
1000
MANEDIT
1070
     0
1002
}
1002
{
1000
NOSEL
1070
     0
1002
}
1002
{
1000
BEHIND
1070
     0
1002
}
1002
{
1000
OTHER
1070
     0
1002
}
1002
{
1000
REACTOR
1002
}
1001
GENIUS_GENOBJ-N-HTC_13
1002
{
1000
OWNER
1000
GEN
1002
}
1001
GENIUS_GENHATCH_13
1002
{
1000
DATA
1040
45.0
1042
2.5
1000
_U
1070
     0
1011
3701.998014836735
1021
1896.601796836378
1031
-11.54355933150624
1002
}
1002
{
1000
UCS
1010
0.0
1020
0.0
1030
0.0
1010
1.0
1020
0.0
1030
0.0
1010
0.0
1020
1.0
1030
0.0
1002
}
1001
ACAD
1010
0.0
1020
0.0
1030
0.0
  0
HATCH
  5
7EB
330
1F
100
AcDbEntity
  8
AM_8
 62
     0
100
AcDbHatch
 10
0.0
 20
0.0
 30
20.21070547391984
210
0.0
220
0.0
230
1.0
  2
SOLID
 70
     1
 71
     0
 91
        1
 92
        1
 93
        4
 72
     1
 10
3503.935541137167
 20
1769.969835113301
 11
3505.70330809013
 21
1768.949214387145
 72
     1
 10
3505.703308090131
 20
1768.949214387145
 11
3503.935541137167
 21
1782.217283827219
 72
     1
 10
3503.935541137166
 20
1782.217283827219
 11
3502.1677741842
 21
1770.990455839464
 72
     1
 10
3502.167774184199
 20
1770.990455839464
 11
3503.935541137167
 21
1769.969835113301
 97
        0
 75
     0
 76
     1
 98
        1
 10
568.139886276585
 20
-13.64600453882781
450
        0
451
        0
460
0.0
461
0.0
452
        0
462
0.0
453
        0
470

1001
GENIUS_GENODEF_13
1002
{
1000
HIER
1070
     0
1002
}
1002
{
1000
MANEDIT
1070
     0
1002
}
1002
{
1000
NOSEL
1070
     0
1002
}
1002
{
1000
BEHIND
1070
     0
1002
}
1002
{
1000
OTHER
1070
     0
1002
}
1002
{
1000
REACTOR
1002
}
1001
GENIUS_GENOBJ-N-HTC_13
1002
{
1000
OWNER
1000
GEN
1002
}
1001
GENIUS_GENHATCH_13
1002
{
1000
DATA
1040
45.0
1042
2.5
1000
_U
1070
     0
1011
3503.550319271175
1021
1772.948204114493
1031
20.21070547391984
1002
}
1002
{
1000
UCS
1010
0.0
1020
0.0
1030
0.0
1010
1.0
1020
0.0
1030
0.0
1010
0.0
1020
1.0
1030
0.0
1002
}
1001
ACAD
1010
0.0
1020
0.0
1030
0.0
  0
HATCH
  5
7EC
330
1F
100
AcDbEntity
  8
AM_8
 62
     0
100
AcDbHatch
 10
0.0
 20
0.0
 30
20.21070547391984
210
0.0
220
0.0
230
1.0
  2
SOLID
 70
     1
 71
     0
 91
        1
 92
        1
 93
        5
 72
     1
 10
3512.774375901996
 20
1789.36162891033
 11
3503.935541137162
 21
1782.217283827215
 72
     1
 10
3503.935541137162
 20
1782.217283827215
 11
3516.309909807926
 21
1787.320387458013
 72
     1
 10
3516.309909807927
 20
1787.320387458013
 11
3514.542142854965
 21
1788.341008184178
 72
     1
 10
3514.542142854964
 20
1788.341008184178
 11
3514.485662545505
 21
1788.37361710604
 72
     1
 10
3514.485662545505
 20
1788.37361710604
 11
3512.774375901994
 21
1789.36162891033
 97
        0
 75
     0
 76
     1
 98
        1
 10
568.139886276585
 20
-13.64600453882781
450
        0
451
        0
460
0.0
461
0.0
452
        0
462
0.0
453
        0
470

1001
GENIUS_GENODEF_13
1002
{
1000
HIER
1070
     0
1002
}
1002
{
1000
MANEDIT
1070
     0
1002
}
1002
{
1000
NOSEL
1070
     0
1002
}
1002
{
1000
BEHIND
1070
     0
1002
}
1002
{
1000
OTHER
1070
     0
1002
}
1002
{
1000
REACTOR
1002
}
1001
GENIUS_GENOBJ-N-HTC_13
1002
{
1000
OWNER
1000
GEN
1002
}
1001
GENIUS_GENHATCH_13
1002
{
1000
DATA
1040
45.0
1042
2.5
1000
_U
1070
     0
1011
3514.018679621106
1021
1787.564778954711
1031
20.21070547391984
1002
}
1002
{
1000
UCS
1010
0.0
1020
0.0
1030
0.0
1010
1.0
1020
0.0
1030
0.0
1010
0.0
1020
1.0
1030
0.0
1002
}
1001
ACAD
1010
0.0
1020
0.0
1030
0.0
  0
HATCH
  5
7ED
330
1F
100
AcDbEntity
  8
AM_8
 62
     0
100
AcDbHatch
 10
0.0
 20
0.0
 30
-20.20381336935563
210
0.0
220
0.0
230
1.0
  2
SOLID
 70
     1
 71
     0
 91
        1
 92
        1
 93
        3
 72
     1
 10
3505.703308090125
 20
1532.165205918095
 11
3502.16777418419
 21
1534.206447370416
 72
     1
 10
3502.16777418419
 20
1534.206447370416
 11
3503.93554113716
 21
1520.938377930332
 72
     1
 10
3503.935541137159
 20
1520.938377930332
 11
3505.703308090124
 21
1532.165205918095
 97
        0
 75
     0
 76
     1
 98
        1
 10
568.13988627657
 20
-70.80076520377861
450
        0
451
        0
460
0.0
461
0.0
452
        0
462
0.0
453
        0
470

1001
GENIUS_GENODEF_13
1002
{
1000
HIER
1070
     0
1002
}
1002
{
1000
MANEDIT
1070
     0
1002
}
1002
{
1000
NOSEL
1070
     0
1002
}
1002
{
1000
BEHIND
1070
     0
1002
}
1002
{
1000
OTHER
1070
     0
1002
}
1002
{
1000
REACTOR
1002
}
1001
GENIUS_GENOBJ-N-HTC_13
1002
{
1000
OWNER
1000
GEN
1002
}
1001
GENIUS_GENHATCH_13
1002
{
1000
DATA
1040
45.0
1042
2.5
1000
_U
1070
     0
1011
3503.633507088563
1021
1528.018539625962
1031
-20.20381336935563
1002
}
1002
{
1000
UCS
1010
0.0
1020
0.0
1030
0.0
1010
1.0
1020
0.0
1030
0.0
1010
0.0
1020
1.0
1030
0.0
1002
}
1001
ACAD
1010
0.0
1020
0.0
1030
0.0
  0
ENDSEC
  0
SECTION
  2
OBJECTS
  0
DICTIONARY
  5
C
330
0
100
AcDbDictionary
281
     1
  3
ACAD_CIP_PREVIOUS_PRODUCT_INFO
350
216
  3
ACAD_COLOR
350
6B
  3
ACAD_DETAILVIEWSTYLE
350
21B
  3
ACAD_FIELDLIST
350
2B6
  3
ACAD_GROUP
350
D
  3
ACAD_LAYOUT
350
1A
  3
ACAD_MATERIAL
350
6A
  3
ACAD_MLEADERSTYLE
350
12D
  3
ACAD_MLINESTYLE
350
17
  3
ACAD_PLOTSETTINGS
350
19
  3
ACAD_PLOTSTYLENAME
350
E
  3
ACAD_SCALELIST
350
10C
  3
ACAD_SECTIONVIEWSTYLE
350
219
  3
ACAD_TABLESTYLE
350
7E
  3
ACAD_VISUALSTYLE
350
EF
  3
ACDB_RECOMPOSE_DATA
350
7F3
  3
AcDbVariableDictionary
350
5E
  3
AcmDictionary
350
27D
  3
AMG
350
251
  3
AMGSNAPSETTINGS
350
338
  0
DICTIONARY
  5
1FF
330
2
100
AcDbDictionary
280
     1
281
     1
  3
ACAD_LAYERSTATES
360
200
  0
DICTIONARY
  5
13C
330
10
100
AcDbDictionary
280
     1
281
     1
  0
DICTIONARY
  5
1CE
330
1F
100
AcDbDictionary
280
     1
281
     1
  3
ACAD_SORTENTS
360
39B
  0
XRECORD
  5
216
102
{ACAD_REACTORS
330
C
102
}
330
C
100
AcDbXrecord
280
     1
300
AMECH_PP
300
2015
300
AMECH_PP_F_S
  0
DICTIONARY
  5
6B
102
{ACAD_REACTORS
330
C
102
}
330
C
100
AcDbDictionary
281
     1
  0
DICTIONARY
  5
21B
102
{ACAD_REACTORS
330
C
102
}
330
C
100
AcDbDictionary
281
     1
  3
Imperial24
350
314
  3
Metric50
350
21C
  0
FIELDLIST
  5
2B6
102
{ACAD_REACTORS
330
C
102
}
330
C
100
AcDbIdSet
 90
        3
330
7A1
330
7A2
330
7A3
100
AcDbFieldList
  0
DICTIONARY
  5
D
102
{ACAD_REACTORS
330
C
102
}
330
C
100
AcDbDictionary
281
     1
  0
DICTIONARY
  5
1A
102
{ACAD_REACTORS
330
C
102
}
330
C
100
AcDbDictionary
281
     1
  3
Model
350
22
  3
Układ1
350
D3
  3
Układ2
350
D7
  0
DICTIONARY
  5
6A
102
{ACAD_REACTORS
330
C
102
}
330
C
100
AcDbDictionary
281
     1
  3
ByBlock
350
ED
  3
ByLayer
350
EC
  3
Global
350
EE
  0
DICTIONARY
  5
12D
102
{ACAD_REACTORS
330
C
102
}
330
C
100
AcDbDictionary
281
     1
  3
Annotative
350
13B
  3
Standard
350
12E
  0
DICTIONARY
  5
17
102
{ACAD_REACTORS
330
C
102
}
330
C
100
AcDbDictionary
281
     1
  3
Standard
350
18
  0
DICTIONARY
  5
19
102
{ACAD_REACTORS
330
C
102
}
330
C
100
AcDbDictionary
281
     1
  0
ACDBDICTIONARYWDFLT
  5
E
102
{ACAD_REACTORS
330
C
102
}
330
C
100
AcDbDictionary
281
     1
  3
Normal
350
F
100
AcDbDictionaryWithDefault
340
F
  0
DICTIONARY
  5
10C
102
{ACAD_REACTORS
330
C
102
}
330
C
100
AcDbDictionary
281
     1
  3
A0
350
10D
  3
A1
350
1BE
  3
A2
350
1BF
  3
A3
350
1C0
  3
A4
350
1C1
  3
A5
350
1C2
  3
A6
350
1C3
  3
A7
350
1C4
  3
A8
350
1C5
  3
A9
350
1C6
  3
B0
350
1C7
  3
B1
350
1C8
  3
B2
350
1C9
  3
B3
350
1CA
  3
B4
350
1CB
  3
B5
350
1CC
  3
B6
350
1CD
  0
DICTIONARY
  5
219
102
{ACAD_REACTORS
330
C
102
}
330
C
100
AcDbDictionary
281
     1
  3
Imperial24
350
312
  3
Metric50
350
21A
  0
DICTIONARY
  5
7E
102
{ACAD_REACTORS
330
C
102
}
330
C
100
AcDbDictionary
281
     1
  3
Standard
350
7F
  0
DICTIONARY
  5
EF
102
{ACAD_REACTORS
330
C
102
}
330
C
100
AcDbDictionary
281
     1
  3
2dWireframe
350
F5
  3
Basic
350
F4
  3
Brighten
350
FB
  3
ColorChange
350
FF
  3
Conceptual
350
F8
  3
Dim
350
FA
  3
EdgeColorOff
350
1E6
  3
Facepattern
350
FE
  3
Flat
350
F0
  3
FlatWithEdges
350
F1
  3
Gouraud
350
F2
  3
GouraudWithEdges
350
F3
  3
Hidden
350
F7
  3
JitterOff
350
1E4
  3
Linepattern
350
FD
  3
OverhangOff
350
1E5
  3
Realistic
350
F9
  3
Shaded
350
1F3
  3
Shaded with edges
350
1F2
  3
Shades of Gray
350
1EF
  3
Sketchy
350
1F0
  3
Thicken
350
FC
  3
Wireframe
350
F6
  3
X-Ray
350
1F1
  0
XRECORD
  5
7F3
102
{ACAD_REACTORS
330
C
102
}
330
C
100
AcDbXrecord
280
     1
 90
        1
330
7F
330
21A
330
21C
330
312
330
314
330
340
330
341
330
74C
  0
DICTIONARY
  5
5E
102
{ACAD_REACTORS
330
C
102
}
330
C
100
AcDbDictionary
281
     1
  3
CANNOSCALE
350
146
  3
CMLEADERSTYLE
350
145
  3
CTABLESTYLE
350
84
  3
CVIEWDETAILSTYLE
350
227
  3
CVIEWSECTIONSTYLE
350
228
  3
DIMASSOC
350
5F
  3
HIDETEXT
350
63
  3
LAYEREVAL
350
1AE
  3
LAYERNOTIFY
350
1AF
  0
DICTIONARY
  5
27D
102
{ACAD_REACTORS
330
C
102
}
330
C
100
AcDbDictionary
281
     1
  3
AcmStdDictionary
350
27F
  0
DICTIONARY
  5
251
102
{ACAD_REACTORS
330
C
102
}
330
C
100
AcDbDictionary
281
     1
  0
DICTIONARY
  5
338
102
{ACAD_REACTORS
330
C
102
}
330
C
100
AcDbDictionary
281
     1
  0
DICTIONARY
  5
200
102
{ACAD_REACTORS
330
1FF
102
}
330
1FF
100
AcDbDictionary
281
     1
  0
SORTENTSTABLE
  5
39B
102
{ACAD_REACTORS
330
1CE
102
}
330
1CE
100
AcDbSortentsTable
330
1F
331
340
  5
340
331
341
  5
341
331
342
  5
342
331
343
  5
343
  0
ACDBDETAILVIEWSTYLE
  5
314
102
{ACAD_XDICTIONARY
360
315
102
}
102
{ACAD_REACTORS
330
21B
330
79B
102
}
330
21B
100
AcDbModelDocViewStyle
 70
     0
  3
Imperial24
290
     0
100
AcDbDetailViewStyle
 70
     0
 71
     0
 90
        3
 71
     1
340
11
 62
   256
 40
0.24
340
0
 62
   256
 40
0.24
300

 40
0.36
280
     3
 71
     2
340
16
 90
       25
 62
   256
 71
     3
340
11
 62
   256
 40
0.24
 90
        1
 40
0.75
 90
        1
300
%<\AcVar ViewType \f "%tc1">% %<\AcVar ViewDetailId>%\PSKALA %<\AcVar ViewScale \f "%sn">%
 71
     4
340
16
 90
       25
 62
   256
340
16
 90
       25
 62
   256
280
     0
  0
ACDBDETAILVIEWSTYLE
  5
21C
102
{ACAD_XDICTIONARY
360
236
102
}
102
{ACAD_REACTORS
330
21B
330
79C
102
}
330
21B
100
AcDbModelDocViewStyle
 70
     0
  3
Metric50
290
     0
100
AcDbDetailViewStyle
 70
     0
 71
     0
 90
        3
 71
     1
340
11
 62
   256
 40
5.0
340
0
 62
   256
 40
5.0
300

 40
0.0
280
     1
 71
     2
340
16
 90
       25
 62
   256
 71
     3
340
11
 62
   256
 40
5.0
 90
        0
 40
15.0
 90
        1
300
%<\AcVar ViewDetailId>% (%<\AcVar ViewScale \f "%sn">%)
 71
     4
340
16
 90
       25
 62
   256
340
16
 90
       25
 62
   256
280
     0
  0
LAYOUT
  5
22
102
{ACAD_XDICTIONARY
360
205
102
}
102
{ACAD_REACTORS
330
1A
102
}
330
1A
100
AcDbPlotSettings
  1

  2
none_device
  4
ISO_A4_(210.00_x_297.00_MM)
  6

 40
7.5
 41
20.0
 42
7.5
 43
20.0
 44
210.0
 45
297.0
 46
11.54999923706054
 47
-13.65000009536743
 48
0.0
 49
0.0
140
0.0
141
0.0
142
1.0
143
8.704084754739808
 70
 11952
 72
     1
 73
     0
 74
     0
  7

 75
     0
147
0.1148885871608098
 76
     0
 77
     2
 78
   300
148
0.0
149
0.0
100
AcDbLayout
  1
Model
 70
     1
 71
     0
 10
0.0
 20
0.0
 11
12.0
 21
9.0
 12
0.0
 22
0.0
 32
0.0
 14
0.0
 24
0.0
 34
0.0
 15
0.0
 25
0.0
 35
0.0
146
0.0
 13
0.0
 23
0.0
 33
0.0
 16
1.0
 26
0.0
 36
0.0
 17
0.0
 27
1.0
 37
0.0
 76
     0
330
1F
331
EA
1001
ACAD_PSEXT
1000
None
1000
None
1000
Not applicable
1000
The layout will not be plotted unless a new plotter configuration name is selected.
1070
     0
  0
LAYOUT
  5
D3
102
{ACAD_REACTORS
330
1A
102
}
330
1A
100
AcDbPlotSettings
  1

  2
C:\Documents and Settings\basas\Application Data\Autodesk\AutoCAD 2005\R16.1\enu\plotters\Default Windows System Printer.pc3
  4

  6

 40
0.0
 41
0.0
 42
0.0
 43
0.0
 44
0.0
 45
0.0
 46
0.0
 47
0.0
 48
0.0
 49
0.0
140
0.0
141
0.0
142
1.0
143
1.0
 70
   688
 72
     0
 73
     0
 74
     5
  7

 75
    16
147
1.0
 76
     0
 77
     2
 78
   300
148
0.0
149
0.0
100
AcDbLayout
  1
Układ1
 70
     1
 71
     1
 10
0.0
 20
0.0
 11
12.0
 21
9.0
 12
0.0
 22
0.0
 32
0.0
 14
0.0
 24
0.0
 34
0.0
 15
0.0
 25
0.0
 35
0.0
146
0.0
 13
0.0
 23
0.0
 33
0.0
 16
1.0
 26
0.0
 36
0.0
 17
0.0
 27
1.0
 37
0.0
 76
     0
330
D2
  0
LAYOUT
  5
D7
102
{ACAD_REACTORS
330
1A
102
}
330
1A
100
AcDbPlotSettings
  1

  2
C:\Documents and Settings\basas\Application Data\Autodesk\AutoCAD 2005\R16.1\enu\plotters\Default Windows System Printer.pc3
  4

  6

 40
0.0
 41
0.0
 42
0.0
 43
0.0
 44
0.0
 45
0.0
 46
0.0
 47
0.0
 48
0.0
 49
0.0
140
0.0
141
0.0
142
1.0
143
1.0
 70
   688
 72
     0
 73
     0
 74
     5
  7

 75
    16
147
1.0
 76
     0
 77
     2
 78
   300
148
0.0
149
0.0
100
AcDbLayout
  1
Układ2
 70
     1
 71
     2
 10
0.0
 20
0.0
 11
12.0
 21
9.0
 12
0.0
 22
0.0
 32
0.0
 14
0.0
 24
0.0
 34
0.0
 15
0.0
 25
0.0
 35
0.0
146
0.0
 13
0.0
 23
0.0
 33
0.0
 16
1.0
 26
0.0
 36
0.0
 17
0.0
 27
1.0
 37
0.0
 76
     0
330
D6
  0
MATERIAL
  5
ED
102
{ACAD_XDICTIONARY
360
1F9
102
}
102
{ACAD_REACTORS
330
6A
102
}
330
6A
100
AcDbMaterial
  1
ByBlock
 94
       63
  0
MATERIAL
  5
EC
102
{ACAD_XDICTIONARY
360
1F7
102
}
102
{ACAD_REACTORS
330
6A
102
}
330
6A
100
AcDbMaterial
  1
ByLayer
 94
       63
  0
MATERIAL
  5
EE
102
{ACAD_XDICTIONARY
360
173
102
}
102
{ACAD_REACTORS
330
6A
102
}
330
6A
100
AcDbMaterial
  1
Global
 43
0.0007999999797903
 43
0.0
 43
0.0
 43
0.0
 43
0.0
 43
0.0007999999797903
 43
0.0
 43
0.0
 43
0.0
 43
0.0
 43
1.0
 43
0.0
 43
0.0
 43
0.0
 43
0.0
 43
1.0
 49
0.0007999999797903
 49
0.0
 49
0.0
 49
0.0
 49
0.0
 49
0.0007999999797903
 49
0.0
 49
0.0
 49
0.0
 49
0.0
 49
1.0
 49
0.0
 49
0.0
 49
0.0
 49
0.0
 49
1.0
142
0.0007999999797903
142
0.0
142
0.0
142
0.0
142
0.0
142
0.0007999999797903
142
0.0
142
0.0
142
0.0
142
0.0
142
1.0
142
0.0
142
0.0
142
0.0
142
0.0
142
1.0
144
0.0007999999797903
144
0.0
144
0.0
144
0.0
144
0.0
144
0.0007999999797903
144
0.0
144
0.0
144
0.0
144
0.0
144
1.0
144
0.0
144
0.0
144
0.0
144
0.0
144
1.0
 94
       63
1001
ACAD
1070
    -1
1070
     3
1070
     0
1000

1071
        0
1070
     0
  0
MLEADERSTYLE
  5
13B
102
{ACAD_REACTORS
330
12D
102
}
330
12D
100
AcDbMLeaderStyle
179
     2
170
     2
171
     1
172
     0
 90
        2
 40
0.0
 41
0.0
173
     1
 91
-1056964608
340
14
 92
       -2
290
     1
 42
2.0
291
     1
 43
8.0
  3
Standard
 44
4.0
300

342
11
174
     1
178
     1
175
     1
176
     0
 93
-1056964608
 45
4.0
292
     0
297
     0
 46
4.0
 94
-1056964608
 47
1.0
 49
1.0
140
1.0
293
     1
141
0.0
294
     1
177
     0
142
1.0
295
     0
296
     1
143
3.75
271
     0
272
     9
273
     9
298
     0
  0
MLEADERSTYLE
  5
12E
102
{ACAD_REACTORS
330
12D
102
}
330
12D
100
AcDbMLeaderStyle
179
     2
170
     2
171
     1
172
     0
 90
        2
 40
0.0
 41
0.0
173
     1
 91
-1056964608
340
14
 92
       -2
290
     1
 42
2.0
291
     1
 43
8.0
  3
Standard
 44
4.0
300

342
11
174
     1
178
     1
175
     1
176
     0
 93
-1056964608
 45
4.0
292
     0
297
     0
 46
4.0
 94
-1056964608
 47
1.0
 49
1.0
140
1.0
293
     1
141
0.0
294
     1
177
     0
142
1.0
295
     0
296
     0
143
3.75
271
     0
272
     9
273
     9
298
     0
  0
MLINESTYLE
  5
18
102
{ACAD_REACTORS
330
17
102
}
330
17
100
AcDbMlineStyle
  2
STANDARD
 70
     0
  3

 62
   256
 51
90.0
 52
90.0
 71
     2
 49
0.5
 62
   256
  6
BYLAYER
 49
-0.5
 62
   256
  6
BYLAYER
  0
ACDBPLACEHOLDER
  5
F
102
{ACAD_REACTORS
330
E
102
}
330
E
  0
SCALE
  5
10D
102
{ACAD_REACTORS
330
10C
102
}
330
10C
100
AcDbScale
 70
     0
300
1:1
140
1.0
141
1.0
290
     1
  0
SCALE
  5
1BE
102
{ACAD_REACTORS
330
10C
102
}
330
10C
100
AcDbScale
 70
     0
300
1:2
140
1.0
141
2.0
290
     0
  0
SCALE
  5
1BF
102
{ACAD_REACTORS
330
10C
102
}
330
10C
100
AcDbScale
 70
     0
300
1:4
140
1.0
141
4.0
290
     0
  0
SCALE
  5
1C0
102
{ACAD_REACTORS
330
10C
102
}
330
10C
100
AcDbScale
 70
     0
300
1:5
140
1.0
141
5.0
290
     0
  0
SCALE
  5
1C1
102
{ACAD_REACTORS
330
10C
102
}
330
10C
100
AcDbScale
 70
     0
300
1:8
140
1.0
141
8.0
290
     0
  0
SCALE
  5
1C2
102
{ACAD_REACTORS
330
10C
102
}
330
10C
100
AcDbScale
 70
     0
300
1:10
140
1.0
141
10.0
290
     0
  0
SCALE
  5
1C3
102
{ACAD_REACTORS
330
10C
102
}
330
10C
100
AcDbScale
 70
     0
300
1:16
140
1.0
141
16.0
290
     0
  0
SCALE
  5
1C4
102
{ACAD_REACTORS
330
10C
102
}
330
10C
100
AcDbScale
 70
     0
300
1:20
140
1.0
141
20.0
290
     0
  0
SCALE
  5
1C5
102
{ACAD_REACTORS
330
10C
102
}
330
10C
100
AcDbScale
 70
     0
300
1:30
140
1.0
141
30.0
290
     0
  0
SCALE
  5
1C6
102
{ACAD_REACTORS
330
10C
102
}
330
10C
100
AcDbScale
 70
     0
300
1:40
140
1.0
141
40.0
290
     0
  0
SCALE
  5
1C7
102
{ACAD_REACTORS
330
10C
102
}
330
10C
100
AcDbScale
 70
     0
300
1:50
140
1.0
141
50.0
290
     0
  0
SCALE
  5
1C8
102
{ACAD_REACTORS
330
10C
102
}
330
10C
100
AcDbScale
 70
     0
300
1:100
140
1.0
141
100.0
290
     0
  0
SCALE
  5
1C9
102
{ACAD_REACTORS
330
10C
102
}
330
10C
100
AcDbScale
 70
     0
300
2:1
140
2.0
141
1.0
290
     0
  0
SCALE
  5
1CA
102
{ACAD_REACTORS
330
10C
102
}
330
10C
100
AcDbScale
 70
     0
300
4:1
140
4.0
141
1.0
290
     0
  0
SCALE
  5
1CB
102
{ACAD_REACTORS
330
10C
102
}
330
10C
100
AcDbScale
 70
     0
300
8:1
140
8.0
141
1.0
290
     0
  0
SCALE
  5
1CC
102
{ACAD_REACTORS
330
10C
102
}
330
10C
100
AcDbScale
 70
     0
300
10:1
140
10.0
141
1.0
290
     0
  0
SCALE
  5
1CD
102
{ACAD_REACTORS
330
10C
102
}
330
10C
100
AcDbScale
 70
     0
300
100:1
140
100.0
141
1.0
290
     0
  0
ACDBSECTIONVIEWSTYLE
  5
312
102
{ACAD_XDICTIONARY
360
313
102
}
102
{ACAD_REACTORS
330
219
330
799
102
}
330
219
100
AcDbModelDocViewStyle
 70
     0
  3
Imperial24
290
     0
100
AcDbSectionViewStyle
 70
     0
 71
     0
 90
      102
 71
     1
340
11
 62
   256
 40
5.0
340
0
340
0
 62
   256
 40
5.0
300
I, O, Q, S, X, Z
 40
10.0
 90
        0
 40
2.5
 90
        0
 71
     2
340
16
 90
       25
 62
   256
340
16
 90
       50
 62
   256
 40
5.0
 40
2.5
 40
5.0
 71
     3
340
11
 62
   256
 40
5.0
 90
        0
 40
15.0
 90
        1
300
%<\AcVar ViewSectionStartId>%-%<\AcVar ViewSectionEndId>% (%<\AcVar ViewScale \f "%sn">%)
 71
     4
 62
   256
 62
   257
300
ANSI31
 40
1.0
 90
        0
290
     0
290
     0
 90
        6
 40
0.0
 40
1.570796326794896
 40
0.2617993877991494
 40
1.308996938995747
 40
-0.2617993877991494
 40
1.832595714594044
  0
ACDBSECTIONVIEWSTYLE
  5
21A
102
{ACAD_XDICTIONARY
360
234
102
}
102
{ACAD_REACTORS
330
219
330
79A
102
}
330
219
100
AcDbModelDocViewStyle
 70
     0
  3
Metric50
290
     0
100
AcDbSectionViewStyle
 70
     0
 71
     0
 90
      102
 71
     1
340
11
 62
   256
 40
5.0
340
0
340
0
 62
   256
 40
5.0
300
I, O, Q, S, X, Z
 40
10.0
 90
        0
 40
2.5
 90
        0
 71
     2
340
16
 90
       25
 62
   256
340
16
 90
       50
 62
   256
 40
5.0
 40
2.5
 40
5.0
 71
     3
340
11
 62
   256
 40
5.0
 90
        0
 40
15.0
 90
        1
300
%<\AcVar ViewSectionStartId>%-%<\AcVar ViewSectionEndId>% (%<\AcVar ViewScale \f "%sn">%)
 71
     4
 62
   256
 62
   257
300
ANSI31
 40
1.0
 90
        0
290
     0
290
     0
 90
        6
 40
0.0
 40
1.570796326794896
 40
0.2617993877991494
 40
1.308996938995747
 40
-0.2617993877991494
 40
1.832595714594044
  0
TABLESTYLE
  5
7F
102
{ACAD_XDICTIONARY
360
162
102
}
102
{ACAD_REACTORS
330
7E
102
}
330
7E
100
AcDbTableStyle
280
     0
  3
Standard
 70
     0
 71
     0
 40
1.5
 41
1.5
280
     0
281
     0
  7
Standard
140
4.5
170
     2
 62
     0
 63
     7
283
     0
 90
      512
 91
        0
  1

274
    -2
284
     1
 64
     0
275
    -2
285
     1
 65
     0
276
    -2
286
     1
 66
     0
277
    -2
287
     1
 67
     0
278
    -2
288
     1
 68
     0
279
    -2
289
     1
 69
     0
  7
Standard
140
6.0
170
     5
 62
     0
 63
     7
283
     0
 90
      512
 91
        0
  1

274
    -2
284
     1
 64
     0
275
    -2
285
     1
 65
     0
276
    -2
286
     1
 66
     0
277
    -2
287
     1
 67
     0
278
    -2
288
     1
 68
     0
279
    -2
289
     1
 69
     0
  7
Standard
140
4.5
170
     5
 62
     0
 63
     7
283
     0
 90
      512
 91
        0
  1

274
    -2
284
     1
 64
     0
275
    -2
285
     1
 65
     0
276
    -2
286
     1
 66
     0
277
    -2
287
     1
 67
     0
278
    -2
288
     1
 68
     0
279
    -2
289
     1
 69
     0
  0
VISUALSTYLE
  5
F5
102
{ACAD_REACTORS
330
EF
102
}
330
EF
100
AcDbVisualStyle
  2
2dWireframe
 70
     4
177
     3
291
     0
 70
    58
 90
        0
176
     1
 90
        2
176
     1
 90
        1
176
     1
 90
        0
176
     1
 40
0.6
176
     1
 40
30.0
176
     1
 62
     7
420
 16777215
176
     1
 90
        1
176
     1
 90
        4
176
     1
 62
     7
176
     1
 62
   257
176
     1
 90
        1
176
     1
 90
        1
176
     1
 40
1.0
176
     1
 90
        0
176
     1
 62
   257
176
     1
 40
1.0
176
     1
 90
        1
176
     1
 90
        6
176
     1
 90
        2
176
     1
 62
     7
176
     1
 90
        5
176
     1
 90
        0
176
     1
 90
        0
176
     1
290
     0
176
     1
 90
        1
176
     1
 40
0.0
176
     1
 90
        0
176
     1
290
     1
176
     1
290
     1
176
     1
290
     0
176
     1
290
     0
176
     1
290
     0
176
     1
290
     0
176
     1
290
     0
176
     1
290
     0
176
     1
290
     0
176
     1
 90
       50
176
     1
 40
0.0
176
     1
 40
1.0
176
     1
 90
        0
176
     1
 62
    18
176
     1
 90
       50
176
     1
 90
        3
176
     1
 62
     5
420
      255
176
     1
290
     0
176
     1
 90
       50
176
     1
 90
       50
176
     1
 90
       50
176
     1
290
     0
176
     1
 90
       50
176
     1
 62
   256
176
     0
 40
1.0
176
     0
 90
        2
176
     1
  1
strokes_ogs.tif
176
     1
290
     0
176
     1
 40
1.0
176
     1
 40
1.0
176
     1
  0
VISUALSTYLE
  5
F4
102
{ACAD_REACTORS
330
EF
102
}
330
EF
100
AcDbVisualStyle
  2
Basic
 70
     7
177
     3
291
     1
 70
    58
 90
        1
176
     1
 90
        0
176
     1
 90
        1
176
     1
 90
        0
176
     1
 40
0.6
176
     1
 40
30.0
176
     1
 62
     7
420
 16777215
176
     1
 90
        0
176
     1
 90
        4
176
     1
 62
     7
176
     1
 62
   257
176
     1
 90
        1
176
     1
 90
        1
176
     1
 40
1.0
176
     1
 90
        8
176
     1
 62
     7
176
     1
 40
1.0
176
     1
 90
        1
176
     1
 90
        6
176
     1
 90
        2
176
     1
 62
     7
176
     1
 90
        5
176
     1
 90
        0
176
     1
 90
        0
176
     1
290
     0
176
     1
 90
        1
176
     1
 40
0.0
176
     1
 90
        0
176
     1
290
     0
176
     1
290
     1
176
     1
290
     1
176
     1
290
     0
176
     1
290
     0
176
     1
290
     0
176
     1
290
     0
176
     1
290
     0
176
     1
290
     0
176
     1
 90
       50
176
     1
 40
0.0
176
     1
 40
1.0
176
     1
 90
        0
176
     1
 62
    18
176
     1
 90
       50
176
     1
 90
        3
176
     1
 62
     5
420
      255
176
     1
290
     0
176
     1
 90
       50
176
     1
 90
       50
176
     1
 90
       50
176
     1
290
     0
176
     1
 90
       50
176
     1
 62
   256
176
     0
 40
1.0
176
     0
 90
        2
176
     1
  1
strokes_ogs.tif
176
     1
290
     0
176
     1
 40
1.0
176
     1
 40
1.0
176
     1
  0
VISUALSTYLE
  5
FB
102
{ACAD_REACTORS
330
EF
102
}
330
EF
100
AcDbVisualStyle
  2
Brighten
 70
    12
177
     3
291
     1
 70
    58
 90
        2
176
     1
 90
        2
176
     1
 90
        1
176
     1
 90
        0
176
     1
 40
0.6
176
     1
 40
30.0
176
     1
 62
     7
420
 16777215
176
     1
 90
        1
176
     1
 90
        4
176
     1
 62
     7
176
     1
 62
   257
176
     1
 90
        1
176
     1
 90
        1
176
     1
 40
1.0
176
     1
 90
        8
176
     1
 62
     7
176
     1
 40
1.0
176
     1
 90
        1
176
     1
 90
        6
176
     1
 90
        2
176
     1
 62
     7
176
     1
 90
        5
176
     1
 90
        0
176
     1
 90
        0
176
     1
290
     0
176
     1
 90
        1
176
     1
 40
50.0
176
     1
 90
        0
176
     1
290
     0
176
     1
290
     1
176
     1
290
     1
176
     1
290
     0
176
     1
290
     0
176
     1
290
     0
176
     1
290
     0
176
     1
290
     0
176
     1
290
     0
176
     1
 90
       50
176
     1
 40
0.0
176
     1
 40
1.0
176
     1
 90
        0
176
     1
 62
    18
176
     1
 90
       50
176
     1
 90
        3
176
     1
 62
     5
420
      255
176
     1
290
     0
176
     1
 90
       50
176
     1
 90
       50
176
     1
 90
       50
176
     1
290
     0
176
     1
 90
       50
176
     1
 62
   256
176
     0
 40
1.0
176
     0
 90
        2
176
     1
  1
strokes_ogs.tif
176
     1
290
     0
176
     1
 40
1.0
176
     1
 40
1.0
176
     1
  0
VISUALSTYLE
  5
FF
102
{ACAD_REACTORS
330
EF
102
}
330
EF
100
AcDbVisualStyle
  2
ColorChange
 70
    16
177
     3
291
     1
 70
    58
 90
        2
176
     1
 90
        2
176
     1
 90
        3
176
     1
 90
        0
176
     1
 40
0.6
176
     1
 40
30.0
176
     1
 62
     8
420
  8421504
176
     1
 90
        1
176
     1
 90
        4
176
     1
 62
     7
176
     1
 62
   257
176
     1
 90
        1
176
     1
 90
        1
176
     1
 40
1.0
176
     1
 90
        8
176
     1
 62
     8
420
  8421504
176
     1
 40
1.0
176
     1
 90
        1
176
     1
 90
        6
176
     1
 90
        2
176
     1
 62
     7
176
     1
 90
        5
176
     1
 90
        0
176
     1
 90
        0
176
     1
290
     0
176
     1
 90
        1
176
     1
 40
0.0
176
     1
 90
        0
176
     1
290
     0
176
     1
290
     1
176
     1
290
     1
176
     1
290
     0
176
     1
290
     0
176
     1
290
     0
176
     1
290
     0
176
     1
290
     0
176
     1
290
     0
176
     1
 90
       50
176
     1
 40
0.0
176
     1
 40
1.0
176
     1
 90
        0
176
     1
 62
    18
176
     1
 90
       50
176
     1
 90
        3
176
     1
 62
     5
420
      255
176
     1
290
     0
176
     1
 90
       50
176
     1
 90
       50
176
     1
 90
       50
176
     1
290
     0
176
     1
 90
       50
176
     1
 62
   256
176
     0
 40
1.0
176
     0
 90
        2
176
     1
  1
strokes_ogs.tif
176
     1
290
     0
176
     1
 40
1.0
176
     1
 40
1.0
176
     1
  0
VISUALSTYLE
  5
F8
102
{ACAD_REACTORS
330
EF
102
}
330
EF
100
AcDbVisualStyle
  2
Conceptual
 70
     9
177
     3
291
     0
 70
    58
 90
        3
176
     1
 90
        2
176
     1
 90
        1
176
     1
 90
        0
176
     1
 40
0.6
176
     1
 40
30.0
176
     1
 62
     7
420
 16777215
176
     1
 90
        2
176
     1
 90
        2
176
     1
 62
     7
176
     1
 62
   257
176
     1
 90
        1
176
     1
 90
        1
176
     1
 40
40.0
176
     1
 90
        8
176
     1
 62
     7
176
     1
 40
1.0
176
     1
 90
        1
176
     1
 90
        6
176
     1
 90
        2
176
     1
 62
     7
176
     1
 90
        3
176
     1
 90
        0
176
     1
 90
        0
176
     1
290
     0
176
     1
 90
        1
176
     1
 40
0.0
176
     1
 90
        0
176
     1
290
     0
176
     1
290
     1
176
     1
290
     1
176
     1
290
     0
176
     1
290
     0
176
     1
290
     0
176
     1
290
     0
176
     1
290
     0
176
     1
290
     0
176
     1
 90
       50
176
     1
 40
0.0
176
     1
 40
1.0
176
     1
 90
        0
176
     1
 62
    18
176
     1
 90
       50
176
     1
 90
        3
176
     1
 62
     5
420
      255
176
     1
290
     0
176
     1
 90
       50
176
     1
 90
       50
176
     1
 90
       50
176
     1
290
     0
176
     1
 90
       50
176
     1
 62
   256
176
     0
 40
1.0
176
     0
 90
        2
176
     1
  1
strokes_ogs.tif
176
     1
290
     0
176
     1
 40
1.0
176
     1
 40
1.0
176
     1
  0
VISUALSTYLE
  5
FA
102
{ACAD_REACTORS
330
EF
102
}
330
EF
100
AcDbVisualStyle
  2
Dim
 70
    11
177
     3
291
     1
 70
    58
 90
        2
176
     1
 90
        2
176
     1
 90
        1
176
     1
 90
        0
176
     1
 40
0.6
176
     1
 40
30.0
176
     1
 62
     7
420
 16777215
176
     1
 90
        1
176
     1
 90
        4
176
     1
 62
     7
176
     1
 62
   257
176
     1
 90
        1
176
     1
 90
        1
176
     1
 40
1.0
176
     1
 90
        8
176
     1
 62
     7
176
     1
 40
1.0
176
     1
 90
        1
176
     1
 90
        6
176
     1
 90
        2
176
     1
 62
     7
176
     1
 90
        5
176
     1
 90
        0
176
     1
 90
        0
176
     1
290
     0
176
     1
 90
        1
176
     1
 40
-50.0
176
     1
 90
        0
176
     1
290
     0
176
     1
290
     1
176
     1
290
     1
176
     1
290
     0
176
     1
290
     0
176
     1
290
     0
176
     1
290
     0
176
     1
290
     0
176
     1
290
     0
176
     1
 90
       50
176
     1
 40
0.0
176
     1
 40
1.0
176
     1
 90
        0
176
     1
 62
    18
176
     1
 90
       50
176
     1
 90
        3
176
     1
 62
     5
420
      255
176
     1
290
     0
176
     1
 90
       50
176
     1
 90
       50
176
     1
 90
       50
176
     1
290
     0
176
     1
 90
       50
176
     1
 62
   256
176
     0
 40
1.0
176
     0
 90
        2
176
     1
  1
strokes_ogs.tif
176
     1
290
     0
176
     1
 40
1.0
176
     1
 40
1.0
176
     1
  0
VISUALSTYLE
  5
1E6
102
{ACAD_REACTORS
330
EF
102
}
330
EF
100
AcDbVisualStyle
  2
EdgeColorOff
 70
    22
177
     3
291
     1
 70
    58
 90
        2
176
     0
 90
        2
176
     0
 90
        0
176
     0
 90
        0
176
     0
 40
0.6
176
     0
 40
30.0
176
     0
 62
     7
420
 16777215
176
     0
 90
        1
176
     0
 90
        4
176
     0
 62
     7
176
     0
 62
   257
176
     0
 90
        1
176
     0
 90
        1
176
     0
 40
1.0
176
     0
 90
        8
176
     2
 62
     7
176
     0
 40
1.0
176
     0
 90
        1
176
     0
 90
        6
176
     0
 90
        2
176
     0
 62
     7
176
     0
 90
        5
176
     0
 90
        0
176
     0
 90
        0
176
     0
290
     0
176
     0
 90
        1
176
     0
 40
0.0
176
     0
 90
        0
176
     0
290
     0
176
     1
290
     1
176
     1
290
     1
176
     1
290
     0
176
     1
290
     0
176
     1
290
     0
176
     1
290
     0
176
     1
290
     0
176
     1
290
     0
176
     1
 90
       50
176
     1
 40
0.0
176
     1
 40
1.0
176
     1
 90
        0
176
     1
 62
    18
176
     1
 90
       50
176
     1
 90
        3
176
     1
 62
     5
420
      255
176
     1
290
     0
176
     1
 90
       50
176
     1
 90
       50
176
     1
 90
       50
176
     1
290
     0
176
     1
 90
       50
176
     1
 62
   256
176
     0
 40
1.0
176
     0
 90
        2
176
     1
  1
strokes_ogs.tif
176
     1
290
     0
176
     1
 40
1.0
176
     1
 40
1.0
176
     1
  0
VISUALSTYLE
  5
FE
102
{ACAD_REACTORS
330
EF
102
}
330
EF
100
AcDbVisualStyle
  2
Facepattern
 70
    15
177
     3
291
     1
 70
    58
 90
        2
176
     1
 90
        2
176
     1
 90
        1
176
     1
 90
        0
176
     1
 40
0.6
176
     1
 40
30.0
176
     1
 62
     7
420
 16777215
176
     1
 90
        1
176
     1
 90
        4
176
     1
 62
     7
176
     1
 62
   257
176
     1
 90
        1
176
     1
 90
        1
176
     1
 40
1.0
176
     1
 90
        8
176
     1
 62
     7
176
     1
 40
1.0
176
     1
 90
        1
176
     1
 90
        6
176
     1
 90
        2
176
     1
 62
     7
176
     1
 90
        5
176
     1
 90
        0
176
     1
 90
        0
176
     1
290
     0
176
     1
 90
        1
176
     1
 40
0.0
176
     1
 90
        0
176
     1
290
     0
176
     1
290
     1
176
     1
290
     1
176
     1
290
     0
176
     1
290
     0
176
     1
290
     0
176
     1
290
     0
176
     1
290
     0
176
     1
290
     0
176
     1
 90
       50
176
     1
 40
0.0
176
     1
 40
1.0
176
     1
 90
        0
176
     1
 62
    18
176
     1
 90
       50
176
     1
 90
        3
176
     1
 62
     5
420
      255
176
     1
290
     0
176
     1
 90
       50
176
     1
 90
       50
176
     1
 90
       50
176
     1
290
     0
176
     1
 90
       50
176
     1
 62
   256
176
     0
 40
1.0
176
     0
 90
        2
176
     1
  1
strokes_ogs.tif
176
     1
290
     0
176
     1
 40
1.0
176
     1
 40
1.0
176
     1
  0
VISUALSTYLE
  5
F0
102
{ACAD_REACTORS
330
EF
102
}
330
EF
100
AcDbVisualStyle
  2
Flat
 70
     0
177
     3
291
     1
 70
    58
 90
        2
176
     1
 90
        1
176
     1
 90
        1
176
     1
 90
        2
176
     1
 40
0.6
176
     1
 40
30.0
176
     1
 62
     7
420
 16777215
176
     1
 90
        0
176
     1
 90
        0
176
     1
 62
     7
176
     1
 62
   257
176
     1
 90
        1
176
     1
 90
        1
176
     1
 40
1.0
176
     1
 90
        8
176
     1
 62
     7
176
     1
 40
1.0
176
     1
 90
        1
176
     1
 90
        6
176
     1
 90
        2
176
     1
 62
     7
176
     1
 90
        5
176
     1
 90
        0
176
     1
 90
        0
176
     1
290
     0
176
     1
 90
       13
176
     1
 40
0.0
176
     1
 90
        0
176
     1
290
     0
176
     1
290
     1
176
     1
290
     1
176
     1
290
     0
176
     1
290
     0
176
     1
290
     0
176
     1
290
     0
176
     1
290
     0
176
     1
290
     0
176
     1
 90
       50
176
     1
 40
0.0
176
     1
 40
1.0
176
     1
 90
        0
176
     1
 62
    18
176
     1
 90
       50
176
     1
 90
        3
176
     1
 62
     5
420
      255
176
     1
290
     0
176
     1
 90
       50
176
     1
 90
       50
176
     1
 90
       50
176
     1
290
     0
176
     1
 90
       50
176
     1
 62
   256
176
     0
 40
1.0
176
     0
 90
        2
176
     1
  1
strokes_ogs.tif
176
     1
290
     0
176
     1
 40
1.0
176
     1
 40
1.0
176
     1
  0
VISUALSTYLE
  5
F1
102
{ACAD_REACTORS
330
EF
102
}
330
EF
100
AcDbVisualStyle
  2
FlatWithEdges
 70
     1
177
     3
291
     1
 70
    58
 90
        2
176
     1
 90
        1
176
     1
 90
        1
176
     1
 90
        2
176
     1
 40
0.6
176
     1
 40
30.0
176
     1
 62
     7
420
 16777215
176
     1
 90
        1
176
     1
 90
        0
176
     1
 62
     7
176
     1
 62
   257
176
     1
 90
        1
176
     1
 90
        1
176
     1
 40
1.0
176
     1
 90
        0
176
     1
 62
   257
176
     1
 40
1.0
176
     1
 90
        1
176
     1
 90
        6
176
     1
 90
        2
176
     1
 62
     7
176
     1
 90
        5
176
     1
 90
        0
176
     1
 90
        0
176
     1
290
     0
176
     1
 90
       13
176
     1
 40
0.0
176
     1
 90
        0
176
     1
290
     0
176
     1
290
     1
176
     1
290
     1
176
     1
290
     0
176
     1
290
     0
176
     1
290
     0
176
     1
290
     0
176
     1
290
     0
176
     1
290
     0
176
     1
 90
       50
176
     1
 40
0.0
176
     1
 40
1.0
176
     1
 90
        0
176
     1
 62
    18
176
     1
 90
       50
176
     1
 90
        3
176
     1
 62
     5
420
      255
176
     1
290
     0
176
     1
 90
       50
176
     1
 90
       50
176
     1
 90
       50
176
     1
290
     0
176
     1
 90
       50
176
     1
 62
   256
176
     0
 40
1.0
176
     0
 90
        2
176
     1
  1
strokes_ogs.tif
176
     1
290
     0
176
     1
 40
1.0
176
     1
 40
1.0
176
     1
  0
VISUALSTYLE
  5
F2
102
{ACAD_REACTORS
330
EF
102
}
330
EF
100
AcDbVisualStyle
  2
Gouraud
 70
     2
177
     3
291
     1
 70
    58
 90
        2
176
     1
 90
        2
176
     1
 90
        1
176
     1
 90
        2
176
     1
 40
0.6
176
     1
 40
30.0
176
     1
 62
     7
420
 16777215
176
     1
 90
        0
176
     1
 90
        0
176
     1
 62
     7
176
     1
 62
   257
176
     1
 90
        1
176
     1
 90
        1
176
     1
 40
1.0
176
     1
 90
        0
176
     1
 62
     7
176
     1
 40
1.0
176
     1
 90
        1
176
     1
 90
        6
176
     1
 90
        2
176
     1
 62
     7
176
     1
 90
        5
176
     1
 90
        0
176
     1
 90
        0
176
     1
290
     0
176
     1
 90
       13
176
     1
 40
0.0
176
     1
 90
        0
176
     1
290
     0
176
     1
290
     1
176
     1
290
     1
176
     1
290
     0
176
     1
290
     0
176
     1
290
     0
176
     1
290
     0
176
     1
290
     0
176
     1
290
     0
176
     1
 90
       50
176
     1
 40
0.0
176
     1
 40
1.0
176
     1
 90
        0
176
     1
 62
    18
176
     1
 90
       50
176
     1
 90
        3
176
     1
 62
     5
420
      255
176
     1
290
     0
176
     1
 90
       50
176
     1
 90
       50
176
     1
 90
       50
176
     1
290
     0
176
     1
 90
       50
176
     1
 62
   256
176
     0
 40
1.0
176
     0
 90
        2
176
     1
  1
strokes_ogs.tif
176
     1
290
     0
176
     1
 40
1.0
176
     1
 40
1.0
176
     1
  0
VISUALSTYLE
  5
F3
102
{ACAD_REACTORS
330
EF
102
}
330
EF
100
AcDbVisualStyle
  2
GouraudWithEdges
 70
     3
177
     3
291
     1
 70
    58
 90
        2
176
     1
 90
        2
176
     1
 90
        1
176
     1
 90
        2
176
     1
 40
0.6
176
     1
 40
30.0
176
     1
 62
     7
420
 16777215
176
     1
 90
        1
176
     1
 90
        0
176
     1
 62
     7
176
     1
 62
   257
176
     1
 90
        1
176
     1
 90
        1
176
     1
 40
1.0
176
     1
 90
        0
176
     1
 62
   257
176
     1
 40
1.0
176
     1
 90
        1
176
     1
 90
        6
176
     1
 90
        2
176
     1
 62
     7
176
     1
 90
        5
176
     1
 90
        0
176
     1
 90
        0
176
     1
290
     0
176
     1
 90
       13
176
     1
 40
0.0
176
     1
 90
        0
176
     1
290
     0
176
     1
290
     1
176
     1
290
     1
176
     1
290
     0
176
     1
290
     0
176
     1
290
     0
176
     1
290
     0
176
     1
290
     0
176
     1
290
     0
176
     1
 90
       50
176
     1
 40
0.0
176
     1
 40
1.0
176
     1
 90
        0
176
     1
 62
    18
176
     1
 90
       50
176
     1
 90
        3
176
     1
 62
     5
420
      255
176
     1
290
     0
176
     1
 90
       50
176
     1
 90
       50
176
     1
 90
       50
176
     1
290
     0
176
     1
 90
       50
176
     1
 62
   256
176
     0
 40
1.0
176
     0
 90
        2
176
     1
  1
strokes_ogs.tif
176
     1
290
     0
176
     1
 40
1.0
176
     1
 40
1.0
176
     1
  0
VISUALSTYLE
  5
F7
102
{ACAD_REACTORS
330
EF
102
}
330
EF
100
AcDbVisualStyle
  2
Hidden
 70
     6
177
     3
291
     0
 70
    58
 90
        1
176
     1
 90
        2
176
     1
 90
        2
176
     1
 90
        0
176
     1
 40
0.6
176
     1
 40
30.0
176
     1
 62
     7
420
 16777215
176
     1
 90
        2
176
     1
 90
        2
176
     1
 62
     7
176
     1
 62
   257
176
     1
 90
        2
176
     1
 90
        1
176
     1
 40
40.0
176
     1
 90
        0
176
     1
 62
   257
176
     1
 40
1.0
176
     1
 90
        1
176
     1
 90
        6
176
     1
 90
        2
176
     1
 62
     7
176
     1
 90
        3
176
     1
 90
        0
176
     1
 90
        0
176
     1
290
     0
176
     1
 90
        1
176
     1
 40
0.0
176
     1
 90
        0
176
     1
290
     0
176
     1
290
     1
176
     1
290
     1
176
     1
290
     0
176
     1
290
     0
176
     1
290
     0
176
     1
290
     0
176
     1
290
     0
176
     1
290
     0
176
     1
 90
       50
176
     1
 40
0.0
176
     1
 40
1.0
176
     1
 90
        0
176
     1
 62
    18
176
     1
 90
       50
176
     1
 90
        3
176
     1
 62
     5
420
      255
176
     1
290
     0
176
     1
 90
       50
176
     1
 90
       50
176
     1
 90
       50
176
     1
290
     0
176
     1
 90
       50
176
     1
 62
   256
176
     0
 40
1.0
176
     0
 90
        2
176
     1
  1
strokes_ogs.tif
176
     1
290
     0
176
     1
 40
1.0
176
     1
 40
1.0
176
     1
  0
VISUALSTYLE
  5
1E4
102
{ACAD_REACTORS
330
EF
102
}
330
EF
100
AcDbVisualStyle
  2
JitterOff
 70
    20
177
     3
291
     1
 70
    58
 90
        2
176
     0
 90
        2
176
     0
 90
        0
176
     0
 90
        0
176
     0
 40
0.6
176
     0
 40
30.0
176
     0
 62
     7
420
 16777215
176
     0
 90
        1
176
     0
 90
        4
176
     0
 62
     7
176
     0
 62
   257
176
     0
 90
        1
176
     0
 90
        1
176
     0
 40
1.0
176
     0
 90
       10
176
     2
 62
     7
176
     0
 40
1.0
176
     0
 90
        1
176
     0
 90
        6
176
     0
 90
        2
176
     0
 62
     7
176
     0
 90
        5
176
     0
 90
        0
176
     0
 90
        0
176
     0
290
     0
176
     0
 90
        1
176
     0
 40
0.0
176
     0
 90
        0
176
     0
290
     0
176
     1
290
     1
176
     1
290
     1
176
     1
290
     0
176
     1
290
     0
176
     1
290
     0
176
     1
290
     0
176
     1
290
     0
176
     1
290
     0
176
     1
 90
       50
176
     1
 40
0.0
176
     1
 40
1.0
176
     1
 90
        0
176
     1
 62
    18
176
     1
 90
       50
176
     1
 90
        3
176
     1
 62
     5
420
      255
176
     1
290
     0
176
     1
 90
       50
176
     1
 90
       50
176
     1
 90
       50
176
     1
290
     0
176
     1
 90
       50
176
     1
 62
   256
176
     0
 40
1.0
176
     0
 90
        2
176
     1
  1
strokes_ogs.tif
176
     1
290
     0
176
     1
 40
1.0
176
     1
 40
1.0
176
     1
  0
VISUALSTYLE
  5
FD
102
{ACAD_REACTORS
330
EF
102
}
330
EF
100
AcDbVisualStyle
  2
Linepattern
 70
    14
177
     3
291
     1
 70
    58
 90
        2
176
     1
 90
        2
176
     1
 90
        1
176
     1
 90
        0
176
     1
 40
0.6
176
     1
 40
30.0
176
     1
 62
     7
420
 16777215
176
     1
 90
        1
176
     1
 90
        4
176
     1
 62
     7
176
     1
 62
   257
176
     1
 90
        7
176
     1
 90
        7
176
     1
 40
1.0
176
     1
 90
        8
176
     1
 62
     7
176
     1
 40
1.0
176
     1
 90
        1
176
     1
 90
        6
176
     1
 90
        2
176
     1
 62
     7
176
     1
 90
        5
176
     1
 90
        0
176
     1
 90
        0
176
     1
290
     0
176
     1
 90
        1
176
     1
 40
0.0
176
     1
 90
        0
176
     1
290
     0
176
     1
290
     1
176
     1
290
     1
176
     1
290
     0
176
     1
290
     0
176
     1
290
     0
176
     1
290
     0
176
     1
290
     0
176
     1
290
     0
176
     1
 90
       50
176
     1
 40
0.0
176
     1
 40
1.0
176
     1
 90
        0
176
     1
 62
    18
176
     1
 90
       50
176
     1
 90
        3
176
     1
 62
     5
420
      255
176
     1
290
     0
176
     1
 90
       50
176
     1
 90
       50
176
     1
 90
       50
176
     1
290
     0
176
     1
 90
       50
176
     1
 62
   256
176
     0
 40
1.0
176
     0
 90
        2
176
     1
  1
strokes_ogs.tif
176
     1
290
     0
176
     1
 40
1.0
176
     1
 40
1.0
176
     1
  0
VISUALSTYLE
  5
1E5
102
{ACAD_REACTORS
330
EF
102
}
330
EF
100
AcDbVisualStyle
  2
OverhangOff
 70
    21
177
     3
291
     1
 70
    58
 90
        2
176
     0
 90
        2
176
     0
 90
        0
176
     0
 90
        0
176
     0
 40
0.6
176
     0
 40
30.0
176
     0
 62
     7
420
 16777215
176
     0
 90
        1
176
     0
 90
        4
176
     0
 62
     7
176
     0
 62
   257
176
     0
 90
        1
176
     0
 90
        1
176
     0
 40
1.0
176
     0
 90
        9
176
     2
 62
     7
176
     0
 40
1.0
176
     0
 90
        1
176
     0
 90
        6
176
     0
 90
        2
176
     0
 62
     7
176
     0
 90
        5
176
     0
 90
        0
176
     0
 90
        0
176
     0
290
     0
176
     0
 90
        1
176
     0
 40
0.0
176
     0
 90
        0
176
     0
290
     0
176
     1
290
     1
176
     1
290
     1
176
     1
290
     0
176
     1
290
     0
176
     1
290
     0
176
     1
290
     0
176
     1
290
     0
176
     1
290
     0
176
     1
 90
       50
176
     1
 40
0.0
176
     1
 40
1.0
176
     1
 90
        0
176
     1
 62
    18
176
     1
 90
       50
176
     1
 90
        3
176
     1
 62
     5
420
      255
176
     1
290
     0
176
     1
 90
       50
176
     1
 90
       50
176
     1
 90
       50
176
     1
290
     0
176
     1
 90
       50
176
     1
 62
   256
176
     0
 40
1.0
176
     0
 90
        2
176
     1
  1
strokes_ogs.tif
176
     1
290
     0
176
     1
 40
1.0
176
     1
 40
1.0
176
     1
  0
VISUALSTYLE
  5
F9
102
{ACAD_REACTORS
330
EF
102
}
330
EF
100
AcDbVisualStyle
  2
Realistic
 70
     8
177
     3
291
     0
 70
    58
 90
        2
176
     1
 90
        3
176
     1
 90
        0
176
     1
 90
        2
176
     1
 40
0.6
176
     1
 40
30.0
176
     1
 62
     7
420
 16777215
176
     1
 90
        0
176
     1
 90
        0
176
     1
 62
     7
176
     1
 62
   257
176
     1
 90
        1
176
     1
 90
        1
176
     1
 40
1.0
176
     1
 90
        8
176
     1
 62
   257
176
     1
 40
1.0
176
     1
 90
        1
176
     1
 90
        6
176
     1
 90
        2
176
     1
 62
     7
176
     1
 90
        3
176
     1
 90
        0
176
     1
 90
        0
176
     1
290
     0
176
     1
 90
       13
176
     1
 40
0.0
176
     1
 90
        0
176
     1
290
     0
176
     1
290
     1
176
     1
290
     1
176
     1
290
     0
176
     1
290
     0
176
     1
290
     0
176
     1
290
     0
176
     1
290
     0
176
     1
290
     0
176
     1
 90
       50
176
     1
 40
0.0
176
     1
 40
1.0
176
     1
 90
        0
176
     1
 62
    18
176
     1
 90
       50
176
     1
 90
        3
176
     1
 62
     5
420
      255
176
     1
290
     0
176
     1
 90
       50
176
     1
 90
       50
176
     1
 90
       50
176
     1
290
     0
176
     1
 90
       50
176
     1
 62
   256
176
     0
 40
1.0
176
     0
 90
        2
176
     1
  1
strokes_ogs.tif
176
     1
290
     0
176
     1
 40
1.0
176
     1
 40
1.0
176
     1
  0
VISUALSTYLE
  5
1F3
102
{ACAD_REACTORS
330
EF
102
}
330
EF
100
AcDbVisualStyle
  2
Shaded
 70
    27
177
     3
291
     0
 70
    58
 90
        2
176
     1
 90
        2
176
     1
 90
        1
176
     1
 90
        2
176
     1
 40
0.6
176
     1
 40
30.0
176
     1
 62
     7
420
 16777215
176
     1
 90
        0
176
     1
 90
        4
176
     1
 62
     7
176
     1
 62
   257
176
     1
 90
        1
176
     1
 90
        1
176
     1
 40
1.0
176
     1
 90
        8
176
     1
 62
   257
176
     1
 40
1.0
176
     1
 90
        1
176
     1
 90
        6
176
     1
 90
        2
176
     1
 62
     8
420
  7895160
176
     1
 90
        3
176
     1
 90
        0
176
     1
 90
        0
176
     1
290
     0
176
     1
 90
        5
176
     1
 40
0.0
176
     1
 90
        0
176
     1
290
     0
176
     1
290
     1
176
     1
290
     1
176
     1
290
     0
176
     1
290
     0
176
     1
290
     0
176
     1
290
     0
176
     1
290
     0
176
     1
290
     0
176
     1
 90
       50
176
     1
 40
0.0
176
     1
 40
1.0
176
     1
 90
        0
176
     1
 62
    18
176
     1
 90
       50
176
     1
 90
        3
176
     1
 62
     5
420
      255
176
     1
290
     0
176
     1
 90
       50
176
     1
 90
       50
176
     1
 90
       50
176
     1
290
     0
176
     1
 90
       50
176
     1
 62
   256
176
     0
 40
1.0
176
     0
 90
        2
176
     1
  1
strokes_ogs.tif
176
     1
290
     0
176
     1
 40
1.0
176
     1
 40
1.0
176
     1
  0
VISUALSTYLE
  5
1F2
102
{ACAD_REACTORS
330
EF
102
}
330
EF
100
AcDbVisualStyle
  2
Shaded with edges
 70
    26
177
     3
291
     0
 70
    58
 90
        2
176
     1
 90
        2
176
     1
 90
        1
176
     1
 90
        2
176
     1
 40
0.6
176
     1
 40
30.0
176
     1
 62
     7
420
 16777215
176
     1
 90
        1
176
     1
 90
       10
176
     1
 62
     7
176
     1
 62
   257
176
     1
 90
        2
176
     1
 90
        1
176
     1
 40
1.0
176
     1
 90
        8
176
     1
 62
   257
176
     1
 40
1.0
176
     1
 90
        1
176
     1
 90
        6
176
     1
 90
        2
176
     1
 62
     7
176
     1
 90
        3
176
     1
 90
        0
176
     1
 90
        0
176
     1
290
     0
176
     1
 90
        5
176
     1
 40
0.0
176
     1
 90
        0
176
     1
290
     0
176
     1
290
     1
176
     1
290
     1
176
     1
290
     0
176
     1
290
     0
176
     1
290
     0
176
     1
290
     0
176
     1
290
     0
176
     1
290
     0
176
     1
 90
       50
176
     1
 40
0.0
176
     1
 40
1.0
176
     1
 90
        0
176
     1
 62
    18
176
     1
 90
       50
176
     1
 90
        3
176
     1
 62
     5
420
      255
176
     1
290
     0
176
     1
 90
       50
176
     1
 90
       50
176
     1
 90
       50
176
     1
290
     0
176
     1
 90
       50
176
     1
 62
   256
176
     0
 40
1.0
176
     0
 90
        2
176
     1
  1
strokes_ogs.tif
176
     1
290
     0
176
     1
 40
1.0
176
     1
 40
1.0
176
     1
  0
VISUALSTYLE
  5
1EF
102
{ACAD_REACTORS
330
EF
102
}
330
EF
100
AcDbVisualStyle
  2
Shades of Gray
 70
    23
177
     3
291
     0
 70
    58
 90
        2
176
     1
 90
        2
176
     1
 90
        3
176
     1
 90
        0
176
     1
 40
0.6
176
     1
 40
30.0
176
     1
 62
     7
420
 16777215
176
     1
 90
        2
176
     1
 90
        2
176
     1
 62
     7
176
     1
 62
     7
176
     1
 90
        1
176
     1
 90
        1
176
     1
 40
40.0
176
     1
 90
        8
176
     1
 62
     7
176
     1
 40
1.0
176
     1
 90
        1
176
     1
 90
        6
176
     1
 90
        2
176
     1
 62
     7
176
     1
 90
        3
176
     1
 90
        0
176
     1
 90
        0
176
     1
290
     0
176
     1
 90
        1
176
     1
 40
0.0
176
     1
 90
        0
176
     1
290
     0
176
     1
290
     1
176
     1
290
     1
176
     1
290
     0
176
     1
290
     0
176
     1
290
     0
176
     1
290
     0
176
     1
290
     0
176
     1
290
     0
176
     1
 90
       50
176
     1
 40
0.0
176
     1
 40
1.0
176
     1
 90
        0
176
     1
 62
    18
176
     1
 90
       50
176
     1
 90
        3
176
     1
 62
     5
420
      255
176
     1
290
     0
176
     1
 90
       50
176
     1
 90
       50
176
     1
 90
       50
176
     1
290
     0
176
     1
 90
       50
176
     1
 62
   256
176
     0
 40
1.0
176
     0
 90
        2
176
     1
  1
strokes_ogs.tif
176
     1
290
     0
176
     1
 40
1.0
176
     1
 40
1.0
176
     1
  0
VISUALSTYLE
  5
1F0
102
{ACAD_REACTORS
330
EF
102
}
330
EF
100
AcDbVisualStyle
  2
Sketchy
 70
    24
177
     3
291
     0
 70
    58
 90
        1
176
     1
 90
        2
176
     1
 90
        2
176
     1
 90
        0
176
     1
 40
0.6
176
     1
 40
30.0
176
     1
 62
     7
420
 16777215
176
     1
 90
        2
176
     1
 90
        2
176
     1
 62
     7
176
     1
 62
     7
176
     1
 90
        1
176
     1
 90
        1
176
     1
 40
40.0
176
     1
 90
       11
176
     1
 62
     7
176
     1
 40
1.0
176
     1
 90
        1
176
     1
 90
        6
176
     1
 90
        2
176
     1
 62
     7
176
     1
 90
        6
176
     1
 90
        0
176
     1
 90
        0
176
     1
290
     0
176
     1
 90
        1
176
     1
 40
0.0
176
     1
 90
        0
176
     1
290
     0
176
     1
290
     1
176
     1
290
     1
176
     1
290
     0
176
     1
290
     0
176
     1
290
     0
176
     1
290
     0
176
     1
290
     0
176
     1
290
     0
176
     1
 90
       50
176
     1
 40
0.0
176
     1
 40
1.0
176
     1
 90
        0
176
     1
 62
    18
176
     1
 90
       50
176
     1
 90
        3
176
     1
 62
     5
420
      255
176
     1
290
     0
176
     1
 90
       50
176
     1
 90
       50
176
     1
 90
       50
176
     1
290
     0
176
     1
 90
       50
176
     1
 62
   256
176
     0
 40
1.0
176
     0
 90
        2
176
     1
  1
strokes_ogs.tif
176
     1
290
     0
176
     1
 40
1.0
176
     1
 40
1.0
176
     1
  0
VISUALSTYLE
  5
FC
102
{ACAD_REACTORS
330
EF
102
}
330
EF
100
AcDbVisualStyle
  2
Thicken
 70
    13
177
     3
291
     1
 70
    58
 90
        2
176
     1
 90
        2
176
     1
 90
        1
176
     1
 90
        0
176
     1
 40
0.6
176
     1
 40
30.0
176
     1
 62
     7
420
 16777215
176
     1
 90
        1
176
     1
 90
        4
176
     1
 62
     7
176
     1
 62
   257
176
     1
 90
        1
176
     1
 90
        1
176
     1
 40
1.0
176
     1
 90
       12
176
     1
 62
     7
176
     1
 40
1.0
176
     1
 90
        1
176
     1
 90
        6
176
     1
 90
        2
176
     1
 62
     7
176
     1
 90
        5
176
     1
 90
        0
176
     1
 90
        0
176
     1
290
     0
176
     1
 90
        1
176
     1
 40
0.0
176
     1
 90
        0
176
     1
290
     0
176
     1
290
     1
176
     1
290
     1
176
     1
290
     0
176
     1
290
     0
176
     1
290
     0
176
     1
290
     0
176
     1
290
     0
176
     1
290
     0
176
     1
 90
       50
176
     1
 40
0.0
176
     1
 40
1.0
176
     1
 90
        0
176
     1
 62
    18
176
     1
 90
       50
176
     1
 90
        3
176
     1
 62
     5
420
      255
176
     1
290
     0
176
     1
 90
       50
176
     1
 90
       50
176
     1
 90
       50
176
     1
290
     0
176
     1
 90
       50
176
     1
 62
   256
176
     0
 40
1.0
176
     0
 90
        2
176
     1
  1
strokes_ogs.tif
176
     1
290
     0
176
     1
 40
1.0
176
     1
 40
1.0
176
     1
  0
VISUALSTYLE
  5
F6
102
{ACAD_REACTORS
330
EF
102
}
330
EF
100
AcDbVisualStyle
  2
Wireframe
 70
     5
177
     3
291
     0
 70
    58
 90
        0
176
     1
 90
        2
176
     1
 90
        0
176
     1
 90
        0
176
     1
 40
0.6
176
     1
 40
30.0
176
     1
 62
     7
420
 16777215
176
     1
 90
        1
176
     1
 90
        4
176
     1
 62
     7
176
     1
 62
   257
176
     1
 90
        1
176
     1
 90
        1
176
     1
 40
1.0
176
     1
 90
        0
176
     1
 62
   257
176
     1
 40
1.0
176
     1
 90
        1
176
     1
 90
        6
176
     1
 90
        2
176
     1
 62
     7
176
     1
 90
        3
176
     1
 90
        0
176
     1
 90
        0
176
     1
290
     0
176
     1
 90
        1
176
     1
 40
0.0
176
     1
 90
        0
176
     1
290
     0
176
     1
290
     1
176
     1
290
     1
176
     1
290
     0
176
     1
290
     0
176
     1
290
     0
176
     1
290
     0
176
     1
290
     0
176
     1
290
     0
176
     1
 90
       50
176
     1
 40
0.0
176
     1
 40
1.0
176
     1
 90
        0
176
     1
 62
    18
176
     1
 90
       50
176
     1
 90
        3
176
     1
 62
     5
420
      255
176
     1
290
     0
176
     1
 90
       50
176
     1
 90
       50
176
     1
 90
       50
176
     1
290
     0
176
     1
 90
       50
176
     1
 62
   256
176
     0
 40
1.0
176
     0
 90
        2
176
     1
  1
strokes_ogs.tif
176
     1
290
     0
176
     1
 40
1.0
176
     1
 40
1.0
176
     1
  0
VISUALSTYLE
  5
1F1
102
{ACAD_REACTORS
330
EF
102
}
330
EF
100
AcDbVisualStyle
  2
X-Ray
 70
    25
177
     3
291
     0
 70
    58
 90
        2
176
     1
 90
        2
176
     1
 90
        1
176
     1
 90
        1
176
     1
 40
0.5
176
     1
 40
30.0
176
     1
 62
     7
420
 16777215
176
     1
 90
        1
176
     1
 90
        0
176
     1
 62
     7
176
     1
 62
   257
176
     1
 90
        1
176
     1
 90
        1
176
     1
 40
1.0
176
     1
 90
        8
176
     1
 62
     7
176
     1
 40
1.0
176
     1
 90
        1
176
     1
 90
        6
176
     1
 90
        2
176
     1
 62
     7
176
     1
 90
        3
176
     1
 90
        0
176
     1
 90
        0
176
     1
290
     0
176
     1
 90
       13
176
     1
 40
0.0
176
     1
 90
        0
176
     1
290
     0
176
     1
290
     1
176
     1
290
     1
176
     1
290
     0
176
     1
290
     0
176
     1
290
     0
176
     1
290
     0
176
     1
290
     0
176
     1
290
     0
176
     1
 90
       50
176
     1
 40
0.0
176
     1
 40
1.0
176
     1
 90
        0
176
     1
 62
    18
176
     1
 90
       50
176
     1
 90
        3
176
     1
 62
     5
420
      255
176
     1
290
     0
176
     1
 90
       50
176
     1
 90
       50
176
     1
 90
       50
176
     1
290
     0
176
     1
 90
       50
176
     1
 62
   256
176
     0
 40
1.0
176
     0
 90
        2
176
     1
  1
strokes_ogs.tif
176
     1
290
     0
176
     1
 40
1.0
176
     1
 40
1.0
176
     1
  0
DICTIONARYVAR
  5
146
102
{ACAD_REACTORS
330
5E
102
}
330
5E
100
DictionaryVariables
280
     0
  1
1:1
  0
DICTIONARYVAR
  5
145
102
{ACAD_REACTORS
330
5E
102
}
330
5E
100
DictionaryVariables
280
     0
  1
STANDARD
  0
DICTIONARYVAR
  5
84
102
{ACAD_REACTORS
330
5E
102
}
330
5E
100
DictionaryVariables
280
     0
  1
STANDARD
  0
DICTIONARYVAR
  5
227
102
{ACAD_REACTORS
330
5E
102
}
330
5E
100
DictionaryVariables
280
     0
  1
Metric50
  0
DICTIONARYVAR
  5
228
102
{ACAD_REACTORS
330
5E
102
}
330
5E
100
DictionaryVariables
280
     0
  1
Metric50
  0
DICTIONARYVAR
  5
5F
102
{ACAD_REACTORS
330
5E
102
}
330
5E
100
DictionaryVariables
280
     0
  1
2
  0
DICTIONARYVAR
  5
63
102
{ACAD_REACTORS
330
5E
102
}
330
5E
100
DictionaryVariables
280
     0
  1
1
  0
DICTIONARYVAR
  5
1AE
102
{ACAD_REACTORS
330
5E
102
}
330
5E
100
DictionaryVariables
280
     0
  1
0
  0
DICTIONARYVAR
  5
1AF
102
{ACAD_REACTORS
330
5E
102
}
330
5E
100
DictionaryVariables
280
     0
  1
0
  0
DICTIONARY
  5
27F
102
{ACAD_REACTORS
330
27D
102
}
330
27D
100
AcDbDictionary
281
     1
  0
DICTIONARY
  5
315
330
314
100
AcDbDictionary
280
     1
281
     1
  3
ACAD_XREC_ROUNDTRIP
360
7F2
  0
DICTIONARY
  5
236
330
21C
100
AcDbDictionary
280
     1
281
     1
  3
ACAD_XREC_ROUNDTRIP
360
7F0
  0
DICTIONARY
  5
205
330
22
100
AcDbDictionary
280
     1
281
     1
  0
DICTIONARY
  5
1F9
330
ED
100
AcDbDictionary
280
     1
281
     1
  3
FBXASSET
360
1FA
  0
DICTIONARY
  5
1F7
330
EC
100
AcDbDictionary
280
     1
281
     1
  3
FBXASSET
360
1F8
  0
DICTIONARY
  5
173
330
EE
100
AcDbDictionary
280
     1
281
     1
  3
BUMPTILE
360
175
  3
DIFFUSETILE
360
174
  3
FBXASSET
360
1FB
  3
OPACITYTILE
360
176
  3
REFLECTIONTILE
360
177
  0
DICTIONARY
  5
313
330
312
100
AcDbDictionary
280
     1
281
     1
  3
ACAD_XREC_ROUNDTRIP
360
7F1
  0
DICTIONARY
  5
234
330
21A
100
AcDbDictionary
280
     1
281
     1
  3
ACAD_XREC_ROUNDTRIP
360
7EF
  0
DICTIONARY
  5
162
330
7F
100
AcDbDictionary
280
     1
281
     1
  3
ACAD_ROUNDTRIP_2008_TABLESTYLE_CELLSTYLEMAP
360
7EE
  0
XRECORD
  5
7F2
102
{ACAD_REACTORS
330
315
102
}
330
315
100
AcDbXrecord
280
     1
102
DISPLAYNAME
  1
Imperial24
102
FLAGS
 90
        0
  0
XRECORD
  5
7F0
102
{ACAD_REACTORS
330
236
102
}
330
236
100
AcDbXrecord
280
     1
102
DISPLAYNAME
  1
Metric50
102
FLAGS
 90
        0
  0
XRECORD
  5
1FA
102
{ACAD_REACTORS
330
1F9
102
}
330
1F9
100
AcDbXrecord
280
     1
 70
     1
 90
429727718
  1
D62C5603-E3A1-4AEA-B7FB-FE5D8D0755AF
310
504B03040A0000080000CC70623B3DEE336E79000000790000001B0000006175746F6465736B2D64657369676E2D7061636B6167652E786D6C3C3F786D6C2076657273696F6E3D22312E302220656E636F64696E673D227574662D3822203F3E3C666F726D6174733E3C666F726D61743E687474703A2F2F736368656D612E
310
6175746F6465736B2E636F6D2F64657369676E2D7061636B6167652F323030393C2F666F726D61743E3C2F666F726D6174733E504B0304140006080800CC70623BD486FD9CA0000000F4000000130000005B436F6E74656E745F54797065735D2E786D6C7D8EC10E82300C865F65E91D8A1E8C310C0EEA1BF002731658846E
310
D98AC1B77784ABF1D8FE5FBFBF75BBCE937A534CCEB38643598122B6FEE978D0B0485F9C41B54DDD7D022595594E1A469170414C76A4D9A4D207E29CF43ECE46F218070CC6BECC4078ACAA135ACF422C856C0E68EA1BF5669944DDD7BCDE7B1F8E415D77AECB980613C2E4AC91FC167A2B244592486606FC29C8FD7F045B9A
310
EF7053A7E60B504B0304140006080800CC70623B853B8169EB0000007C01000008000000636F72652E786D6C8D90416EC3201045AF62CDB6C206821CC7C244919D9CA01740401C94182C03558F5F9C3852BBEB6A467FFE9B197D7EFC9E1EC5975982F5AE035262288C535E5B377690E21535501C055FBC8FBF6C503839990E
310
5619041F179FE64D52DE45E362569DD7661365082642A11EB9E920A89B99642953CC8E702F67A9EE7234257977194EC9EAE275C4EABCCF5EAD5940D4AC6F0E35A568B8F43562CD7046CD199FD07E60174276A7BE677B5EADB0E0D14EEFFB6A31321A0D82627C4084204C3F096B71DD52F6819B16635EADF63F509AF53FA164
310
5DDCD1EDDD17164090FCC8732078B56691CB33A85CD7DCC40F504B0304140006080800CC70623B55019EA25F0000007C00000007000000636E782E786D6C4DCB3B0E80201045D1AD90E915ED2CF8AC45050C11660C8261F98AB1B07AC9C97D42D718D865D3E909258CFD00CCE24AC6E326A164D74DC0B4128928FF32603847
310
2BA13128B1252AC747C6BAB984FC68F0B87FE8960A5C09FE86CFB69FBA01504B0304140006080800CC70623BDBABAAF470010000D40300000C0000006662782F636F72652E786D6CC553D16E823014FD95A6AF4B694182CC941A83FA05FB810A9511A125A5257EFE2E82712ECEB8A7F100CD39F7F69E734AF9FADC366850B6
310
AF8DCE7018308C942E4C59EB2AC3DE1D498AD15A706B8CFB56869196ADCAF00863C12B6B7C374385D14E6907A836A59A41D9F7CA615434B0C8705F7CAA5606D23BA8E84F41278B93AC54100640439DE0BDB320004D43C63716C7C399D30917DCFBBA9CD9BA8469F5B156168B24CED3F7248AC8769F27244EB73B92EED8862C
310
B7F13E0C179B3C8F979C8ECD82BBBABDAA2BAC924E9558448CBD9330242CFA08E3154B5651FCC6D215639C8EE5774DBE2B5F6CF2B5768B68963BB5F5588420E442FC700B1139D4CB01F450C1E918227C2E09DF070D8140C84E1E9AAB8F1340832A9CB13130A5F1376A908D57309505ECF2A0DF179C4E9D30F5B239B87E3823
310
7A79C6F31DE1A8A5AEC08474B03C7837EAE4938639B44E5932B833D2C6B6B279CDC613877FA26EE21F4A2A4C63EC7F29A2F301D1F9F7A0E37D145F504B0304140006080800CC70623B9C113CC27E0000009D0000000B0000006662782F636E782E786D6C4DCCDF0A83201C86E15B91DFB94BFB330DD428C8FB886521330DA7
310
6397BF1A1DECE883878F57749FCDA1B7892F1BBC047A23808C7F84D9FA55424E0BE6803A256208E9EF06C84F9B91703228B1C690F78B66B34CD9A5439DF5CF0BFBF65E35BCA1B8D6A5C6F540381E886698B5741C695F9503EBA150A2F8958E3DC3EA0B504B0304140006080800CC70623B7DF2F77C2A010000120200003100
310
00006662782F41393633353835312D344632462D344230382D423046372D3739314545314133324237412F636F72652E786D6C8D51DB8EC22014FC15C2939B0D2DB4B45643319AE817EC0F6041255A68B86CFCFC856D4D76DF7CE190393373060EDB3DC707F856CE6B6B7A480A0C81328395DA5C7B18C3057510EC3873D686
310
3F34088C18550F330C39BB3A1BA7051AAC09CA84841A2BD5020AEF55806078A44B0FFD7053A328440C89E1EFC52486BBB8AA8214A99D789CF9E05200300FC927E4FB4D5B375D43103D5527440FB843077C5AA3F5861C8F645F5787F59E95B390B318B55CE45AA638FAA2957BD7248B390B7A7CC51F9C124149C82B8C378810
310
84AB2F42B7B8DD56F413775B8C5999E9FF4471926F8AA236A1AE96B8B3CC434E5839373893369E1FAF30EA395917409EB7F26AF8801C171837A4A6AC9C89E9F9C9B1A58BA30FD6A5EF5DDDCF894B9AD9B6A59C957943A9FCAE2FD5BC4DFE03504B0304140006080800CC70623BAD7543B64E01000033030000300000006662
310
782F41393633353835312D344632462D344230382D423046372D3739314545314133324237412F636E782E786D6CD593CD6EC32010845F0571AD6CE3D48AD20813A9873E410FBD12D82434182C7EAAE6EDBB2424CD25871E7B41D6EC30B3FA84F9E67BB2E40B4234DE8DB46F1925E094D7C6ED479AD3AE5951B2113C789FEE
310
6C943839C1488B4C05DF079FE72A69D8C96C13AAD6B8631503449F83828872B949AC57D26200B826A308D316B4064D6E46FCDA41C05550DC9E483A00797BFD207EFB092A45DE9514C1BBD22178396BD39D891265658C238DEA00936C654E5E433CB65A26D9F6EDB5EBC14EBF49A45CB856E66048291F6939A9A81BB5C89177
310
38143CA680F4AA299D66A042CEB3354A2684DC9D8D178FE0D9B8B41CAAD720F880EE7EF93C0C18769E099ECC04D5A102C8049A8A05632F4DDF376CF1DE0F6BB65C2F8627B65A33C6BB62177CEBBDAD973006829F89F22E814B54F4BC2BE347F8AA8F681390B50FA73F804400B5F542E796F19FF974E7F78DB802FE05E20750
310
4B0304140006080800CC70623BE75B7789680500003C100000340000006662782F41393633353835312D344632462D344230382D423046372D3739314545314133324237412F6F626A656374732E786D6CAD575B8F9B3818FD2B887D06C22499CB8AA1CA655245D5B455A356FB305264C061D8018C6C3393D95FBFC7600890
310
A4CD5EF210B0B1BFEBF98E3F7B1FF6596ABC522E1296DF9BAE3D320D9A872C4AF2F8DE2CE5CEBA358D0FBEC719939D65A691938CDE9B6ADAF4BD98B3B2D05311DD91329583D9D5FC0F438434A7A611A644887B5384CF34233629258BA878B12322891DEFF6B66BD70BFB62634E8AE781D082709A4B588AF91C528CDA28B73F
310
1C998EEF39EABBEFA97FBD6A7C7E9553F9D3D79FE442923C3C523610337627CB87ABE99D359D4CC6D6E4FACAB5E6ABF9D2726FC6A3C5F56271377BB88362213924694B38DD99FE47C48627A1E7D49F5A8BB5E1A74C0A599ED3B0F21F1E56366B89112D681E218F0915D0D6F17AD41FBA2A369DCF6335D62ABBD39779D5DDD1
310
11D4D8DE3CBB96B2E04FB8202E41051754A1AA8E8F76B4C6DFE810B580B1547F4B84911149794252234D024EF8BBE963A95AE27B3D310A9D5C215C7960FAEE415ED75694C6AFB17BCACA5D99A60A9AA65F217B0BFC53292ACB92BF283FAD0D3621576592CB5BED907C2FA8E9DF794E35E97BEA31BED21FEB401ABB94C44839
310
DCACBF0E1C5DA8DA5B2F4DFFD32AD86F543D9E565E7056502E157C00AD2671CD534549AB752FCA9CDA00677A313F04E51B22FF19E57B300579E3C97EB29F682D92935CEC18CF901B7B54FD8C51F362B56FC72FE0B3C1EAE335EDCCBF5AEC39ADB17DC238973F804BA5E6F6BFE7AF1FB32E523BE9F3BD571418E3631DCA4D48
310
5250CF639223210A9446CA30052EDF057BD35F8329C1ECD84552BF0DC8D18BE7BCE23BFE6BD960AB4A7DE79923A103BEBD80F911CBAA2C60DB19B01CF164A5583B772EE6D3FFA56666CBCDA74DC97724A48F9A58967497E489C4D979006FD7A05E227A1EBDD0F737C623387A9C844D3709995625106D157315F8B8392CD4E0
310
A0B9A720C4BE9829CEF37EA1E13111214D53925356365ADA634861B52519DD27A00AEB808EAF0628E6F435519D446F45CF2C9CF5214F0A15B2F6D06B79DA3EE3CBF7F56780D2F4E7EF73A0F5E5B02A38D07DC852C6B7C1FBB6664213E0C39E3EBA7FF4E1AD23EA2829407C85E586727488B751B2DB9502BC7B228A3FD68B6E
310
A65A22397E690AA8D158D7E404EC8CDA235CC3B7D1898680131CEC2CDF2638C65196279577750F15884AEE19F94199155B92B13297978469D4F8D358DF0AEF7631E28DC8F0D9F437D5D39A83B2231A1D52D543813A824EF8D44BCFF2FA6A31BD1E8DAD87F1CCB526B3879935BF59CDADD5C37479BB1CDD4CA7B3556B516589
310
EF352754B706114D9C885EC9131DE6EFEB43D99AFE2391C2F958179413D7CFEF6B1B6DB1E7600F00DE6E5C67454A339A4BA2E0FBA85ED26F045D454F463DBFCE484C2F90F2E5E3666003662ED8F755951A7D1BECD5B30B550B2785C8E7320B7292A4838DDA71BBC863ED7613CAF659337A3354231D4FF4A182A54904C2898C
310
98B28C4AD0CE056CCF332A80986E571EE9DBC305BB5FEB7E509220A58D25CF042D712A806AC0AD0C657FDEF80D2D9CEAA2EE4D1C76F60BFE74219A06527D6F82DF6412526107381E55E353090704D085B52408A8913C4ED159D79BDA71BB4BC506F4831350EB6F975CD22D69BF7AC49B91A2C0A9DDA3D5CA36AD20FC478E37
310
E61844E2352865EBCB61A275A65283CAAA9DD27703B4102F5AF51EF5F573B75CBB5AD38BC845F7A49F82A0966A49C2E3EA5EA0ECD326CD965F1DB402C6FA8B51A4658C5C5E2EC9E214602E55810345408596591009A82E7E7FFACA19EEA299B14A0081A705CB3296EBC14CDF658DCD336EA6D1136881AAEB87B81AB9EE53D5
310
F5EB8BC8362082DA24122F98680A4E7930C01A0079749CEA14382A0783E5EBA5A10F8C098456A03D6A4AEB6BB881E2513747552A5DB22C7EDAF83BD5528081A365F7FF06504B0304140006080000CC70623B000000000000000000000000350000006662782F41393633353835312D344632462D344230382D423046372D37
310
39314545314133324237412F76657274696365732E62696E504B0304140006080800CC70623BF270F1330600000004000000360000006662782F41393633353835312D344632462D344230382D423046372D3739314545314133324237412F747269616E676C65732E62696E636660600000504B0304140006080000CC7062
310
3B000000000000000000000000370000006662782F41393633353835312D344632462D344230382D423046372D3739314545314133324237412F617474726962757465732E62696E504B0304140006080800CC70623B08DA0BD19000000041010000360000006662782F41393633353835312D344632462D344230382D4230
310
46372D3739314545314133324237412F6469726563746F72792E786D6C858F410AC3201045AF22B36F53E9A60B35CBEEBAE80D244E44489C6234F4F835464A48035D0DF398FF9F8AF63D0E6CC63039F212F8F9020C7D47C6792B21C5FE7403D62A1188E2E60C98D7234A5830286103A55745067B9D86B8A3CF9C7F90C11DE6
310
07FB144396D7B6A82D282E9A152AD114D5EF2CB866EEE831B8EEA07A7BB5A8D7D61A2BAAEB7FD5F70921FF497D00504B0304140006080800CC70623BEDD1DC58FD000000A00100003B0000006662782F41393633353835312D344632462D344230382D423046372D3739314545314133324237412F7265736F75726365732F
310
636F72652E786D6C8D504B6E833010BD0A9A6D65B00922041947112427E8052C33A156828DFCA97AFC9A40A576D7CDCCE87D344F8F9FBFE667F689CE6B6B3A6039850C8DB2A336530731DC4903D95970676DF82583CCC8193B5861107C72362E3BA4AC096842428D1D7107A5F7182053CF7474E0D507CE32973124857FE48B
310
540F3961CEF244279DE03EB81420DB9EAC1384436FA353E879B1B182C7A8C75DA3C7F453DF353A1075D537A7BA6464B8F535A99AE14A9A2BBD90E350DD183B5CFABE3AF262350B1EF4FC9351399401471025A527C218A1E53BAB5A5AB765F5469B96525EACF23FA6B88CFF34456DC2A1DCE36E360F82A5202F42F062ED2BAD
310
579969AFDD8A6F504B010214000A0000080000CC70623B3DEE336E79000000790000001B00000000000000000000000000000000006175746F6465736B2D64657369676E2D7061636B6167652E786D6C504B01021400140006080800CC70623BD486FD9CA0000000F40000001300000000000000000000000000B20000005B
310
436F6E74656E745F54797065735D2E786D6C504B01021400140006080800CC70623B853B8169EB0000007C010000080000000000000000000000000083010000636F72652E786D6C504B01021400140006080800CC70623B55019EA25F0000007C000000070000000000000000000000000094020000636E782E786D6C504B
310
01021400140006080800CC70623BDBABAAF470010000D40300000C00000000000000000000000000180300006662782F636F72652E786D6C504B01021400140006080800CC70623B9C113CC27E0000009D0000000B00000000000000000000000000B20400006662782F636E782E786D6C504B01021400140006080800CC70
310
623B7DF2F77C2A010000120200003100000000000000000000000000590500006662782F41393633353835312D344632462D344230382D423046372D3739314545314133324237412F636F72652E786D6C504B01021400140006080800CC70623BAD7543B64E010000330300003000000000000000000000000000D2060000
310
6662782F41393633353835312D344632462D344230382D423046372D3739314545314133324237412F636E782E786D6C504B01021400140006080800CC70623BE75B7789680500003C10000034000000000000000000000000006E0800006662782F41393633353835312D344632462D344230382D423046372D3739314545
310
314133324237412F6F626A656374732E786D6C504B01021400140006080000CC70623B0000000000000000000000003500000000000000000000000000280E00006662782F41393633353835312D344632462D344230382D423046372D3739314545314133324237412F76657274696365732E62696E504B01021400140006
310
080800CC70623BF270F133060000000400000036000000000000000000000000007B0E00006662782F41393633353835312D344632462D344230382D423046372D3739314545314133324237412F747269616E676C65732E62696E504B01021400140006080000CC70623B0000000000000000000000003700000000000000
310
000000000000D50E00006662782F41393633353835312D344632462D344230382D423046372D3739314545314133324237412F617474726962757465732E62696E504B01021400140006080800CC70623B08DA0BD1900000004101000036000000000000000000000000002A0F00006662782F41393633353835312D344632
310
462D344230382D423046372D3739314545314133324237412F6469726563746F72792E786D6C504B01021400140006080800CC70623BEDD1DC58FD000000A00100003B000000000000000000000000000E1000006662782F41393633353835312D344632462D344230382D423046372D3739314545314133324237412F7265
310
736F75726365732F636F72652E786D6C504B0506000000000E000E0080040000641100000000
  0
XRECORD
  5
1F8
102
{ACAD_REACTORS
330
1F7
102
}
330
1F7
100
AcDbXrecord
280
     1
 70
     1
 90
429727718
  1
30362254-06B7-45E0-A893-8CFA70E3D6BC
310
504B03040A0000080000CC70623B3DEE336E79000000790000001B0000006175746F6465736B2D64657369676E2D7061636B6167652E786D6C3C3F786D6C2076657273696F6E3D22312E302220656E636F64696E673D227574662D3822203F3E3C666F726D6174733E3C666F726D61743E687474703A2F2F736368656D612E
310
6175746F6465736B2E636F6D2F64657369676E2D7061636B6167652F323030393C2F666F726D61743E3C2F666F726D6174733E504B0304140006080800CC70623BD486FD9CA0000000F4000000130000005B436F6E74656E745F54797065735D2E786D6C7D8EC10E82300C865F65E91D8A1E8C310C0EEA1BF002731658846E
310
D98AC1B77784ABF1D8FE5FBFBF75BBCE937A534CCEB38643598122B6FEE978D0B0485F9C41B54DDD7D022595594E1A469170414C76A4D9A4D207E29CF43ECE46F218070CC6BECC4078ACAA135ACF422C856C0E68EA1BF5669944DDD7BCDE7B1F8E415D77AECB980613C2E4AC91FC167A2B244592486606FC29C8FD7F045B9A
310
EF7053A7E60B504B0304140006080800CC70623B1EC5D7A3EB0000007C01000008000000636F72652E786D6C8D90416EC3201045AF82665B6103C6756C6122AB4D4ED00B204C5C94182C03558F5F9C3852BBEB6A467FFE9B197D71FC9E6FE8CBACC17AD7032D0820E3B41FAD9B7A48F1820F808E52ACDEC75F36404ECDA687
310
4D0629A6D5A76597B477D1B89855E747B38B2A041301E95B6E7A08FAD3CCAA50296647B8168BD2573599823EBB0CA76447F43862C7BCCF5EAC59410E4DDD9C7973C2755553CCCFA4C603E3040F1565ED3B1FDE4E432BCA0D9622DAF9795FAF464533826484B498524CD807E51D79ED187F21878E10516EF63F505AC67F42C9
310
BA58B1FDDD071640D2FCC87D2045B96591CB3DA85CB7DCE40F504B0304140006080800CC70623B55019EA25F0000007C00000007000000636E782E786D6C4DCB3B0E80201045D1AD90E915ED2CF8AC45050C11660C8261F98AB1B07AC9C97D42D718D865D3E909258CFD00CCE24AC6E326A164D74DC0B4128928FF32603847
310
2BA13128B1252AC747C6BAB984FC68F0B87FE8960A5C09FE86CFB69FBA01504B0304140006080800CC70623B8C9102E971010000D40300000C0000006662782F636F72652E786D6CC5535B6E833010BC8AE5DF0A6C08340F1947A84D4ED00B38C6A128602363A31CBFCB234A53A551FA553EC09AD9F5CE8C31DB9E9B1AF5CA
310
7695D1198E428A91D2D214952E33ECDD315861B4E5CC1AE3BE9561A445A3323CC098B3D21ADFCE9034DA29ED00D5A6503328BA4E398C640D8B0C77F253352214DE4145770A5B214FA2546114020D759C75CE8200340D19DE981F0F6746269C33EFAB6266AB02A655C74A59CCF365BADC27CB5D902ED22848F6340DF238A141
310
BE88E2F57B92BFEDF23523433367AE6A2EEAA455C2A902F398D2751045018D3FA264435F3771F242571B4A1919CA6F9A7C5B3CD9E42BED16F12C776AEB308F40C848FC700B1139D4891EF410CEC810227CC6846F8386402064270EF5C5C709A05E49676C024C61FC95EA45ED154CA5211D1FF4FB8291A913A68E9B83EBBB33
310
E2A7673CDE118E5AE8124C0807CB8377834E366998436B950D7A7746DAD846D4CFD978E0F04FD455FC5D49D2D4C6FE9722321F10997F0F32DC47FE05504B0304140006080800CC70623BFFEA85907E0000009D0000000B0000006662782F636E782E786D6C4DCCD10A83201886E15B91FFDC95D95A811AB6F23E625948A6C3
310
E9D8E5AF46073BFAE0E1E365ED67B3E8ADC3CB78C7815C7240DA3DFC64DCC221C519D7805AC182F7F1EF06C88D9BE6703008B6049F9E274D7A1E938DBB5AE3D6131B2589BA0D3D965551E0B2EA732C9B9A624AAEB41E3A557677029960D9AFB4EF11165F504B0304140006080800CC70623B4FEEA4082C0100001202000031
310
0000006662782F39464131463745442D413632322D343644302D413938332D3331353338454246344243312F636F72652E786D6C8D515B6EC32010BC0AE2AB55850DD871ED0813254D72825EC00192A2C460F1A872FC42ED48ED5F7E00CDCECCCEB26C731F6FE05B39AFADE921293004CA082BB5B9F43086336A21D870E6AC
310
0D7F68109861543DCC30E4ECE26C9C164858139409093556AA051CBC570102714B8F1E7AF1A5C6A11862480C7F2DA6415C878B2A4891CA89C7990F2E050073937C42DE1DB7E4F87ED8A36D4329AA9B3D46DBAEAD504556557BD81DEBDD0761E52CE42C462D17B996298E3E6BE59E35C962CE821E1FF18553435012728A7187
310
0841987E927A8D9B35ADDF70BBC6989599FE4F1427F9A4286A132ABAC49D651EF234CD5CE04CDA78BA3DC2A8FB645D00B9DF8B57E215725C60BCA2A463E54C4CE327C7A65E1C7DB02E7DEFCBF594B864C5CA6CDBD49C957943E9FA5D5FBAF336F90F504B0304140006080800CC70623BAD7543B64E01000033030000300000
310
006662782F39464131463745442D413632322D343644302D413938332D3331353338454246344243312F636E782E786D6CD593CD6EC32010845F0571AD6CE3D48AD20813A9873E410FBD12D82434182C7EAAE6EDBB2424CD25871E7B41D6EC30B3FA84F9E67BB2E40B4234DE8DB46F1925E094D7C6ED479AD3AE5951B2113C
310
789FEE6C943839C1488B4C05DF079FE72A69D8C96C13AAD6B8631503449F83828872B949AC57D26200B826A308D316B4064D6E46FCDA41C05550DC9E483A00797BFD207EFB092A45DE9514C1BBD22178396BD39D891265658C238DEA00936C654E5E433CB65A26D9F6EDB5EBC14EBF49A45CB856E66048291F6939A9A81BB5
310
C8917738143CA680F4AA299D66A042CEB3354A2684DC9D8D178FE0D9B8B41CAAD720F880EE7EF93C0C18769E099ECC04D5A102C8049A8A05632F4DDF376CF1DE0F6BB65C2F8627B65A33C6BB62177CEBBDAD973006829F89F22E814B54F4BC2BE347F8AA8F681390B50FA73F804400B5F542E796F19FF974E7F78DB802FE05
310
E207504B0304140006080800CC70623B16AB87BA640500003C100000340000006662782F39464131463745442D413632322D343644302D413938332D3331353338454246344243312F6F626A656374732E786D6CAD575B6FA33818FD2B887DE6924B3BED8A326A92B68A663B534DD4D13E548A0C38942D60649B369D5FBFC7
310
600890A493BDE42160637FD7F31D7FF63E6FB3D478A55C242CBF3247B66B1A340F5994E4F19559CA8D75611A9F7D8F33263BCB4C232719BD32D5B4E97B316765A1A722BA21652A07B3B7B33F0D11D29C9A46981221AE4C113ED38CD8A4942CA2E2C58E882476BCD9DA23BB5ED8171B73523C0F841684D35CC252CCE79062D4
310
468DFA43D7747CCF51DF7D4FFDEB5593E3AB9CCA9FBEFE241792E4E19EB28198C968BAB8199F5D5A67D3E9C49A9E8F47D6EC76B6B0469F26EEFC7C3EBFBCBEB98462213924694B38DD98FE1D62C393D073EA4FADC5DAF04326852CCF6958F90F0F2B9BB5C48816348F90C7840A68EB78EDF68723159BCEE7891A6B95DDE9D3
310
BCEAEEE8086A6C6F9E5D4B59F0175C10A7A0820BAA5055C7473B5AE3CFDD452D602CD5DF12616444529E90D448938013FE6EFA58AA96F85E4F8C42275708571E98FE6827AF6B2B4AE3D7D83D64E5A64C53054DD3AF90BD06FEA9149565C94FCA0F6B834DC85599E4F2423B24DF0B6AFA979E534DFA9E7A4CC6FA631D486393
310
921829879BF5D781A373557BCB85E97FB90DB62B558F8795179C15944B051F40AB495CF35451D26A4727654E6D8033BD98EF82F21D91FF8AF2DD9982BCF1643BDD4EB516C9492E368C67C88DED563FC36D5EACF66DFF057C3658BDBFA69DF9578B3DA735B64F18C7F20770A9D45CFCF7FCF563D6456A277DBEF78A02637CA2
310
43B90A490AEAB94F72244481D24819A6C0E59B606BFA4B3025981DBB48EAB701D97BF19C577CC77F2D1B6C55A9EF3C732474C0B727303F625995056C3B02963D9EAC146BE78EC5FCEC7FA999EBC5EACBAAE41B12D27B4D2C0BBA49F244E2ECDC81B76B502F113D8F5EE8FB1BE3111CDD4FC2AA9B844CAB1288B68AB90A7CDC
310
1C166AB0D3DC5310625FCC14E779BFD0709F8890A629C9292B1B2DED31A4B0DA928CEE135085754027E3018A397D4D5427D15BD1330B677DC8934285AC3DF45A9EB68FF8F2B8FC0A509AFEECFD0FF2DE25CC6047F7214B195F07EFEB9A094D800F7BFAE8FED187B78EA8A3A400F115961BCAD1215E47C966530AF0EE8128FE
310
58CEBB996A8964FFA529A046635D9353B0336A8F700DDF46271A024E70B0B37C9DE01847591E54DED53D54202AB947E4076556AC49C6CA5C9E1226B7F1A7B1BE15DEED62C41B91E1B3E9AFAAA735036547343A925075041DF0A9979E893B391F8FCFA6967B3EFB644DCF6E5CEBFAE272625DCC6FAF3FB93793C5F90CE1EF57
310
407342756B10D1C489E8953CD1617E5CEECAD6F4EF8914CE5D5D504E5C3F1F9736DA62CFC11E00BCDDB8CC8A9466349744C1F75EBDA4DF09BA8A9E8C7A7E9991989E20E5DBDD6A6003664ED8F7A04A8DBE0DF6EAD9B9AA858342E47399053949D2C146EDB85DE4B176BB0965FBAC19BD19AA918E27FA50C1D22402E144464C
310
59462568E704B6E71915404CB72B8FF4EDE184DDAF753F284990D2C6926782963815403548A70C657FDEF80D2D9CEAA2AE4C1C76F60BFE74219A06527D6582DF6412526107381E55E353090704D085B52408D0933C4ED159D79BDA71BB4BC506F4831350EB6F979CD22D69BF7AC49B91A2C0A9DDA3D5CA36AD20FC478E37E6
310
1844E2352865EBCB6EA275A652E3836BE04EFB400BF1A2556F515F1FBB35B2AB35BD889C744FFA1004B5544B121E57F70215746DD2F5E2C1412B602CBF19455AC6C8E5E9922C4E01E65215385004546899059180EAFCF7A707CE7017CD8CDB0410789AB32C63B91E5CEBBBACB17AC6CD347A022D5075FD106377347AAABA7E
310
7D11590744509B44E205134DC1290F06580320F78E537D3D73540E06CB970B431F185308AD40BBD794D6D77003C5A36E8EAA54BA64597CD8F83BD552A080A365F7FF06504B0304140006080000CC70623B000000000000000000000000350000006662782F39464131463745442D413632322D343644302D413938332D3331
310
353338454246344243312F76657274696365732E62696E504B0304140006080800CC70623BF270F1330600000004000000360000006662782F39464131463745442D413632322D343644302D413938332D3331353338454246344243312F747269616E676C65732E62696E636660600000504B0304140006080000CC70623B
310
000000000000000000000000370000006662782F39464131463745442D413632322D343644302D413938332D3331353338454246344243312F617474726962757465732E62696E504B0304140006080800CC70623B08DA0BD19000000041010000360000006662782F39464131463745442D413632322D343644302D413938
310
332D3331353338454246344243312F6469726563746F72792E786D6C858F410AC3201045AF22B36F53E9A60B35CBEEBAE80D244E44489C6234F4F835464A48035D0DF398FF9F8AF63D0E6CC63039F212F8F9020C7D47C6792B21C5FE7403D62A1188E2E60C98D7234A5830286103A55745067B9D86B8A3CF9C7F90C11DE607
310
FB144396D7B6A82D282E9A152AD114D5EF2CB866EEE831B8EEA07A7BB5A8D7D61A2BAAEB7FD5F70921FF497D00504B0304140006080800CC70623B0D6EF93BFE000000A00100003B0000006662782F39464131463745442D413632322D343644302D413938332D3331353338454246344243312F7265736F75726365732F63
310
6F72652E786D6C8D50596E833010BD0A9ADFCA60B334011947A8694ED00B586642AC041B79A97AFC9A40A5F6AF3F33A3B7689E1E3F7DCD8FEC139DD7D6F4C0720A191A65476DA61E62B892236427C19DB5E1970C322367EC618541F0C9D9B8EC90B226A009093576C41D94DE63804C3DD2D18357379C652E63480A7FCF17A9
310
EE72C29CE5894E3AC17D702940B63D59270887DE46A7D0F36263058F518FBB468FE9A7BE6A7420864373B8D4873369AA8691FA421B3294352543C5CAF65C0F6FEF43CB8BD52C78D0F34F46E550061C419494B6843142CB0F5677F4B52BEB177AEC28E5C52AFF638ACBF84F53D42654E51E77B379102C05791282176B5F693D
310
CB4C7BED567C03504B010214000A0000080000CC70623B3DEE336E79000000790000001B00000000000000000000000000000000006175746F6465736B2D64657369676E2D7061636B6167652E786D6C504B01021400140006080800CC70623BD486FD9CA0000000F40000001300000000000000000000000000B20000005B
310
436F6E74656E745F54797065735D2E786D6C504B01021400140006080800CC70623B1EC5D7A3EB0000007C010000080000000000000000000000000083010000636F72652E786D6C504B01021400140006080800CC70623B55019EA25F0000007C000000070000000000000000000000000094020000636E782E786D6C504B
310
01021400140006080800CC70623B8C9102E971010000D40300000C00000000000000000000000000180300006662782F636F72652E786D6C504B01021400140006080800CC70623BFFEA85907E0000009D0000000B00000000000000000000000000B30400006662782F636E782E786D6C504B01021400140006080800CC70
310
623B4FEEA4082C0100001202000031000000000000000000000000005A0500006662782F39464131463745442D413632322D343644302D413938332D3331353338454246344243312F636F72652E786D6C504B01021400140006080800CC70623BAD7543B64E010000330300003000000000000000000000000000D5060000
310
6662782F39464131463745442D413632322D343644302D413938332D3331353338454246344243312F636E782E786D6C504B01021400140006080800CC70623B16AB87BA640500003C1000003400000000000000000000000000710800006662782F39464131463745442D413632322D343644302D413938332D3331353338
310
454246344243312F6F626A656374732E786D6C504B01021400140006080000CC70623B0000000000000000000000003500000000000000000000000000270E00006662782F39464131463745442D413632322D343644302D413938332D3331353338454246344243312F76657274696365732E62696E504B01021400140006
310
080800CC70623BF270F133060000000400000036000000000000000000000000007A0E00006662782F39464131463745442D413632322D343644302D413938332D3331353338454246344243312F747269616E676C65732E62696E504B01021400140006080000CC70623B0000000000000000000000003700000000000000
310
000000000000D40E00006662782F39464131463745442D413632322D343644302D413938332D3331353338454246344243312F617474726962757465732E62696E504B01021400140006080800CC70623B08DA0BD190000000410100003600000000000000000000000000290F00006662782F39464131463745442D413632
310
322D343644302D413938332D3331353338454246344243312F6469726563746F72792E786D6C504B01021400140006080800CC70623B0D6EF93BFE000000A00100003B000000000000000000000000000D1000006662782F39464131463745442D413632322D343644302D413938332D3331353338454246344243312F7265
310
736F75726365732F636F72652E786D6C504B0506000000000E000E0080040000641100000000
  0
XRECORD
  5
175
102
{ACAD_REACTORS
330
173
102
}
330
173
100
AcDbXrecord
280
     1
270
     1
271
     1
  0
XRECORD
  5
174
102
{ACAD_REACTORS
330
173
102
}
330
173
100
AcDbXrecord
280
     1
270
     1
271
     1
  0
XRECORD
  5
1FB
102
{ACAD_REACTORS
330
173
102
}
330
173
100
AcDbXrecord
280
     1
 70
     0
 90
1673772943
  1
ECE7A1D2-D628-4531-984C-D00F80459256
310
504B03040A0000080000CC70623B3DEE336E79000000790000001B0000006175746F6465736B2D64657369676E2D7061636B6167652E786D6C3C3F786D6C2076657273696F6E3D22312E302220656E636F64696E673D227574662D3822203F3E3C666F726D6174733E3C666F726D61743E687474703A2F2F736368656D612E
310
6175746F6465736B2E636F6D2F64657369676E2D7061636B6167652F323030393C2F666F726D61743E3C2F666F726D6174733E504B0304140006080800CC70623BD486FD9CA0000000F4000000130000005B436F6E74656E745F54797065735D2E786D6C7D8EC10E82300C865F65E91D8A1E8C310C0EEA1BF002731658846E
310
D98AC1B77784ABF1D8FE5FBFBF75BBCE937A534CCEB38643598122B6FEE978D0B0485F9C41B54DDD7D022595594E1A469170414C76A4D9A4D207E29CF43ECE46F218070CC6BECC4078ACAA135ACF422C856C0E68EA1BF5669944DDD7BCDE7B1F8E415D77AECB980613C2E4AC91FC167A2B244592486606FC29C8FD7F045B9A
310
EF7053A7E60B504B0304140006080800CC70623BD9DDAED0EC0000007C01000008000000636F72652E786D6C8D90416EC3201045AF82665B61836D9CD8C2444DD39CA01740405C94182C03558F5F9C3852BBEB6A467FFE9B197D7EF89E6EE8CB2CC17A37002D0820E394D7D68D03A478C17B4007C117EFE32F1B20272733C0
310
2A83E0E3E2D3BC49CABB685CCCAAF3DA6CA20CC14440EA969B0182FA34932C648AD911AEC52CD5558EA6A0CF2EC329598D1E47ACCEFBECC59A050463A7EA5833865FEBDD0E37353BE3EE8DBDE3F6786A48D375FBF6CC78B9C282473B3DEFABC5C86834888A900E538A49F5419B9EB47DD5BC907D4F082F57FB1F28CDFA9F50
310
B22ED6D5F6EE030B20687EE43E10BC5CB3C8E51E54AE6B6EE207504B0304140006080800CC70623B55019EA25F0000007C00000007000000636E782E786D6C4DCB3B0E80201045D1AD90E915ED2CF8AC45050C11660C8261F98AB1B07AC9C97D42D718D865D3E909258CFD00CCE24AC6E326A164D74DC0B4128928FF326038
310
472BA13128B1252AC747C6BAB984FC68F0B87FE8960A5C09FE86CFB69FBA01504B0304140006080800CC70623BA24EB22D72010000D40300000C0000006662782F636F72652E786D6CC5535B6E833010BC8AE5DF0A6C5E49888CA3A6694ED00B38E05014B091B1518EDFE511A5A9D228FD2A1F60CDEC7A67C6986DCE4D8D7A
310
69BA4AAB0C073EC548AA5C17952A33ECECD15B61B4E1CC686DBF9561A44423333CC098B3D268D7CE50AE9595CA02AA74216750749DB418E5352C32DCE59FB211BE70162ABA93DF8AFC244AE9073ED050C759670D0840D390E18DF9F1706664C23973AE2A66B62A605A75ACA4C13C4976E1364A12EF355A2EBD384AF65EFA96
310
BC7B8BED2EA6719AAE16FB8491A199335B351775B991C2CA02F390D2D40B028F861F41BCA68B7518BFD0D59A524686F29B26D7164F36B94AD9289CE54E6D1DE6010819891F6E21228B3AD1831EC219194284CF98F06DD01008846CC5A1BEF83801D4CBDC6A1303536877A57A513B0953A94FC707FDBE6064EA84A9E3E6E0FA
310
EE8CF0E9198F7784A316AA0413C2C2F2E0ECA0934D1AE6D05A69BCDE9E91D2A611F573361E38FC1375157F5752AE6B6DFE4B11990F88CCBF0719EE23FF02504B0304140006080800CC70623B408A7D3B7C0000009D0000000B0000006662782F636E782E786D6C4DCCD10A83201886E15B91FFDC552A92A0064DBC8F581632
310
D3703A76F9ABD1C18E3E78F878E5F0D9027ABBFCF2292AE86E2D20171F69F6715550CB827B40839639A5F2770314A7CD293819B45C73AAFB45B35BA61ACAA1C1C7E7855C58C15BC331339661262CC762340413D68D77DA5B42298546CBE6573AF60CEB2F504B0304140006080800CC70623B449FB9BD290100001202000031
310
0000006662782F36394639363044362D344446342D343946362D394244322D3234314243333846323333332F636F72652E786D6C8D515B6EC32010BC0AE22B55850D98B871848994463E412FE002495162B07854397EA176A4F62F3F2C9A9D991D587EB84F37F0AD7D30CEF6905418026DA553C65E7A98E219ED203808EE9D
310
8B7F6810D871D23D2C3014FCE25D9A57483A1BB58D19B54EE9151C43D0110279CB971E06F9A5A7B11A53CC8C70ADE6515EC78BAE4895DB992778883E0700CB907242D17643D7E2538BD869608875438BBAE38922CAC8F1BDD90DB4691A5E2F42C153326A951B95E398B3D1FE599322163C9AE9115F7A3D46ADA0A018778810
310
84E907617BDCEE297BC5BB3DC6BC2EF47FA234AB2745C9D8D8D035EE220B50105E2F0DC1954B9FB747187D9F9D8FA0CCDB042D5FA0C015C65B42DF78BD10F3F3B363CB56C7109DCFDFBBB97E662ED92EB62D13BC2E1BCAE5777DB9966D8A1F504B0304140006080800CC70623BAD7543B64E01000033030000300000006662
310
782F36394639363044362D344446342D343946362D394244322D3234314243333846323333332F636E782E786D6CD593CD6EC32010845F0571AD6CE3D48AD20813A9873E410FBD12D82434182C7EAAE6EDBB2424CD25871E7B41D6EC30B3FA84F9E67BB2E40B4234DE8DB46F1925E094D7C6ED479AD3AE5951B2113C789FEE
310
6C943839C1488B4C05DF079FE72A69D8C96C13AAD6B8631503449F83828872B949AC57D26200B826A308D316B4064D6E46FCDA41C05550DC9E483A00797BFD207EFB092A45DE9514C1BBD22178396BD39D891265658C238DEA00936C654E5E433CB65A26D9F6EDB5EBC14EBF49A45CB856E66048291F6939A9A81BB5C89177
310
38143CA680F4AA299D66A042CEB3354A2684DC9D8D178FE0D9B8B41CAAD720F880EE7EF93C0C18769E099ECC04D5A102C8049A8A05632F4DDF376CF1DE0F6BB65C2F8627B65A33C6BB62177CEBBDAD973006829F89F22E814B54F4BC2BE347F8AA8F681390B50FA73F804400B5F542E796F19FF974E7F78DB802FE05E20750
310
4B0304140006080800CC70623B8D05915C650500003B100000340000006662782F36394639363044362D344446342D343946362D394244322D3234314243333846323333332F6F626A656374732E786D6CAD575B6FA33814FE2B887D06429276DA1565D4266D158D3A339A6846FB502932E050B66023DB74D2FDF5FB190C01
310
9276B2973C046C8ECFF53B17071F77456EBD502133CEAE6CDF9DD81665314F32965ED995DA3A17B6F5310C04E7AA47665B8C14F4CAD6DB7618A48257A5D94AE89654B91AEDDEDDFC61C998326A5B714EA4BCB265FC440BE2924AF184CA6737218AB8E976E7FA6E4338649B0A523E8D98964450A6A029F619B8588D52FE7039
310
B1BD30F0F4F730D0FF866AF6369557DB33949F31A9088B0F848DD8CCFCF9F2767A76E99CCDE733677E3EF59D9BBB9BA5E37F984D16E78BC5E5F5ED25044B25C0C96822E8D60EEFE11B91C581D77CEA34368A1F5329E68CD1B8B61F16D63A1B8E092D294B10C78C4A48EB593D192E7DED9BDEE7995E1B91FDEDD3ACEA9FE831
310
6A756F9F7D4D79F4274C90A7A04248AA51D5F8C718DAE06FB2F75AC4796EBE65D22A88A22223B995679120E2D50E41AA49C260C046A35368846B0BECD0DFF3EBEB8AD4F835768F69B9ADF25C43D30E6B646F807FAA64AD59F61715C7A54127C4AACA98BA3006A9D792DAE165E0D59B61A01FB3A9F9D838D2DAE62445C86166
310
F37564E842E7DE6A69879FEEA2DD5AE7E371E1A5E025154AC307D06A03D73EB5978C58FFA4C8E9033066E0F3BD53BEC1F39F91BE7B55103791EDE6BBB991A2046172CB4581D8B893FA674DDA17A77B3B7C413D1B511FD2743BFF8A38F03A658705E3ADF8015C3A3417FF3D7E439FF591DA0B5F18BC20C1B8981957AE6392A3
310
F43C640C01D1A0B4728E2DD4F26DB4B3C3152A252A3B4E913CEC1C72F012782FF88EFF8637AA552DBEF76408E8A8DE9E50F9E1CB3A2DA0DB1B6039A893B56063DC5B3E3FFB5F72E67AB9FEB4AEC496C4F4C1149625DD662C53E89D7BF0F6151A046260D1337DFDC94502430F83B0EE07A130A224BCAD7DAE1D9FB6CD422FF6
310
920702629C4BB9AE79C12F243C6432A6794E18E5552BA56B431AAB5D91317302B2B071E86C3A42B1A02F999E24061403B5D0EB639195DA655DD3EBEAB4FB862DDF579F014AD0E73C22F99E28DA57FB98E75C6CA2D74D53086D600F4786E0FE3144B771A8A7B900F03594DB8A633CBC49B2EDB69228BB479CF863B5E807AAAB
310
23872F6DFEB4129B949CA33823F58830E86D65621E10047D9DB34D862E8EAC3C2ABC2F7B2C40D67CDFE01F5545B92105AF983AC54D93D69E56FB8E797F88913F898A9FEC705D3F9D1B54EC8426FB500D40A03BD0119B06E1B95DDC7EB8F6975367793EBD70E66733DFB9BC982F9CE564727731999F5D4ECFCE3B8D6A4DC2A0
310
6D50FD148437D110834A64C6CDDF57FBACB5C307A2A477DFE4939736CFEF2B175371E0E10CF0DD1D5C15654E0BCA14D1E87DD02FF93782A162C0A3D95F1524A52770F972BF1EE9809D13CE7DD599467F8ECE9ADD85CE85A34CD45355448C64F9E8A031DC2D596ACC6E5DD93D9B82DE2EF5CAF81363A8E47996A0DE24564A79
310
4115AACE09C55E14540231FDA13C319787134EBF34E3A022514E5B4D9E0826E25C02D5805B15ABE1BEF51B26383D445DD9E875EE33FE4C22DA16427D65A3BCA92CA6D28DD01DF5DC53330704308475351050232CCD31583787BA75774AFB06E5070DD0C8EF484E19968C5D83BA5B90B244D31E54D55A372320FE4786B7EA58
310
44E135AA5467CB7EA333A61683CC6A8C3257034C10CF46F40EF9F5BE59BE5BD30C3C72D235E95D10345C1D45445A5F0BB47E46A5EBE5570F9380B5FA629579952296A773720405982B9DE04011506178964401AA8BDF1FBF0A8EAB6861DD6580C0E38217056766716DAEB2D6FA0917D3E4116581EADB879C4E7CFFB11EFACD
310
3D641311495D92C8676CB409A72D18610D803CE8A626049E8EC1887CB5B44CC39883690DDA8399B4B9855B481E7D71D4A9D22F96E5BB73BF5793020C02137BF837504B0304140006080000CC70623B000000000000000000000000350000006662782F36394639363044362D344446342D343946362D394244322D32343142
310
43333846323333332F76657274696365732E62696E504B0304140006080800CC70623BF270F1330600000004000000360000006662782F36394639363044362D344446342D343946362D394244322D3234314243333846323333332F747269616E676C65732E62696E636660600000504B0304140006080000CC70623B0000
310
00000000000000000000370000006662782F36394639363044362D344446342D343946362D394244322D3234314243333846323333332F617474726962757465732E62696E504B0304140006080800CC70623B08DA0BD19000000041010000360000006662782F36394639363044362D344446342D343946362D394244322D
310
3234314243333846323333332F6469726563746F72792E786D6C858F410AC3201045AF22B36F53E9A60B35CBEEBAE80D244E44489C6234F4F835464A48035D0DF398FF9F8AF63D0E6CC63039F212F8F9020C7D47C6792B21C5FE7403D62A1188E2E60C98D7234A5830286103A55745067B9D86B8A3CF9C7F90C11DE607FB14
310
4396D7B6A82D282E9A152AD114D5EF2CB866EEE831B8EEA07A7BB5A8D7D61A2BAAEB7FD5F70921FF497D00504B0304140006080800CC70623BCA768048FE000000A00100003B0000006662782F36394639363044362D344446342D343946362D394244322D3234314243333846323333332F7265736F75726365732F636F72
310
652E786D6C8D50596E833010BD0A9ADFCA60D600328E9AA639412F609909B1126CE4A5EAF16B0295DABFFECC8CDEA2797AECF8353F924FB44E193D409E5248504B332A3D0D10FC95B4901C39B3C6F85F3248B49871801506CE266BC2B243D2688FDA47549B11775038871E12F988C7004EDE7016A9083E2ADC3D5D84BC8B09
310
D33C8D74D471E6BC8D0192EDC93A815B742658898E651BCB59086ADC356A8C3FD555A1055ED7E7E254D615792D0F075295F585746FF53B694EE78A565DD736979A65AB9933AFE69F8CD2A2F038022F28ED489E135A7CE4554F9BBEA85E68DB53CAB255FEC71496F19FA6A0B42F8B3DEE6673C0F318E4497096AD7DC5F52C33
310
EEB55BFE0D504B010214000A0000080000CC70623B3DEE336E79000000790000001B00000000000000000000000000000000006175746F6465736B2D64657369676E2D7061636B6167652E786D6C504B01021400140006080800CC70623BD486FD9CA0000000F40000001300000000000000000000000000B20000005B436F
310
6E74656E745F54797065735D2E786D6C504B01021400140006080800CC70623BD9DDAED0EC0000007C010000080000000000000000000000000083010000636F72652E786D6C504B01021400140006080800CC70623B55019EA25F0000007C000000070000000000000000000000000095020000636E782E786D6C504B0102
310
1400140006080800CC70623BA24EB22D72010000D40300000C00000000000000000000000000190300006662782F636F72652E786D6C504B01021400140006080800CC70623B408A7D3B7C0000009D0000000B00000000000000000000000000B50400006662782F636E782E786D6C504B01021400140006080800CC70623B
310
449FB9BD290100001202000031000000000000000000000000005A0500006662782F36394639363044362D344446342D343946362D394244322D3234314243333846323333332F636F72652E786D6C504B01021400140006080800CC70623BAD7543B64E010000330300003000000000000000000000000000D20600006662
310
782F36394639363044362D344446342D343946362D394244322D3234314243333846323333332F636E782E786D6C504B01021400140006080800CC70623B8D05915C650500003B10000034000000000000000000000000006E0800006662782F36394639363044362D344446342D343946362D394244322D32343142433338
310
46323333332F6F626A656374732E786D6C504B01021400140006080000CC70623B0000000000000000000000003500000000000000000000000000250E00006662782F36394639363044362D344446342D343946362D394244322D3234314243333846323333332F76657274696365732E62696E504B010214001400060808
310
00CC70623BF270F13306000000040000003600000000000000000000000000780E00006662782F36394639363044362D344446342D343946362D394244322D3234314243333846323333332F747269616E676C65732E62696E504B01021400140006080000CC70623B00000000000000000000000037000000000000000000
310
00000000D20E00006662782F36394639363044362D344446342D343946362D394244322D3234314243333846323333332F617474726962757465732E62696E504B01021400140006080800CC70623B08DA0BD190000000410100003600000000000000000000000000270F00006662782F36394639363044362D344446342D
310
343946362D394244322D3234314243333846323333332F6469726563746F72792E786D6C504B01021400140006080800CC70623BCA768048FE000000A00100003B000000000000000000000000000B1000006662782F36394639363044362D344446342D343946362D394244322D3234314243333846323333332F7265736F
310
75726365732F636F72652E786D6C504B0506000000000E000E0080040000621100000000
  0
XRECORD
  5
176
102
{ACAD_REACTORS
330
173
102
}
330
173
100
AcDbXrecord
280
     1
270
     1
271
     1
  0
XRECORD
  5
177
102
{ACAD_REACTORS
330
173
102
}
330
173
100
AcDbXrecord
280
     1
270
     1
271
     1
  0
XRECORD
  5
7F1
102
{ACAD_REACTORS
330
313
102
}
330
313
100
AcDbXrecord
280
     1
102
DISPLAYNAME
  1
Imperial24
102
FLAGS
 90
        0
  0
XRECORD
  5
7EF
102
{ACAD_REACTORS
330
234
102
}
330
234
100
AcDbXrecord
280
     1
102
DISPLAYNAME
  1
Metric50
102
FLAGS
 90
        0
  0
CELLSTYLEMAP
  5
7EE
102
{ACAD_REACTORS
330
162
102
}
330
162
100
AcDbCellStyleMap
 90
        3
300
CELLSTYLE
  1
TABLEFORMAT_BEGIN
 90
        5
170
     1
 91
        0
 92
    32768
 62
   257
 93
        1
300
CONTENTFORMAT
  1
CONTENTFORMAT_BEGIN
 90
        0
 91
        0
 92
      512
 93
        0
300

 40
0.0
140
1.0
 94
        5
 62
     0
340
11
144
6.0
309
CONTENTFORMAT_END
171
     1
301
MARGIN
  1
CELLMARGIN_BEGIN
 40
1.5
 40
1.5
 40
1.5
 40
1.5
 40
0.18
 40
0.18
309
CELLMARGIN_END
 94
        6
 95
        1
302
GRIDFORMAT
  1
GRIDFORMAT_BEGIN
 90
        0
 91
        1
 62
     0
 92
       -2
340
14
 93
        0
 40
1.125
309
GRIDFORMAT_END
 95
        2
302
GRIDFORMAT
  1
GRIDFORMAT_BEGIN
 90
        0
 91
        1
 62
     0
 92
       -2
340
14
 93
        0
 40
1.125
309
GRIDFORMAT_END
 95
        4
302
GRIDFORMAT
  1
GRIDFORMAT_BEGIN
 90
        0
 91
        1
 62
     0
 92
       -2
340
14
 93
        0
 40
1.125
309
GRIDFORMAT_END
 95
        8
302
GRIDFORMAT
  1
GRIDFORMAT_BEGIN
 90
        0
 91
        1
 62
     0
 92
       -2
340
14
 93
        0
 40
1.125
309
GRIDFORMAT_END
 95
       16
302
GRIDFORMAT
  1
GRIDFORMAT_BEGIN
 90
        0
 91
        1
 62
     0
 92
       -2
340
14
 93
        0
 40
1.125
309
GRIDFORMAT_END
 95
       32
302
GRIDFORMAT
  1
GRIDFORMAT_BEGIN
 90
        0
 91
        1
 62
     0
 92
       -2
340
14
 93
        0
 40
1.125
309
GRIDFORMAT_END
309
TABLEFORMAT_END
  1
CELLSTYLE_BEGIN
 90
        1
 91
        1
300
_TITLE
309
CELLSTYLE_END
300
CELLSTYLE
  1
TABLEFORMAT_BEGIN
 90
        5
170
     1
 91
        0
 92
        0
 62
   257
 93
        1
300
CONTENTFORMAT
  1
CONTENTFORMAT_BEGIN
 90
        0
 91
        0
 92
      512
 93
        0
300

 40
0.0
140
1.0
 94
        5
 62
     0
340
11
144
4.5
309
CONTENTFORMAT_END
171
     1
301
MARGIN
  1
CELLMARGIN_BEGIN
 40
1.5
 40
1.5
 40
1.5
 40
1.5
 40
0.18
 40
0.18
309
CELLMARGIN_END
 94
        6
 95
        1
302
GRIDFORMAT
  1
GRIDFORMAT_BEGIN
 90
        0
 91
        1
 62
     0
 92
       -2
340
14
 93
        0
 40
1.125
309
GRIDFORMAT_END
 95
        2
302
GRIDFORMAT
  1
GRIDFORMAT_BEGIN
 90
        0
 91
        1
 62
     0
 92
       -2
340
14
 93
        0
 40
1.125
309
GRIDFORMAT_END
 95
        4
302
GRIDFORMAT
  1
GRIDFORMAT_BEGIN
 90
        0
 91
        1
 62
     0
 92
       -2
340
14
 93
        0
 40
1.125
309
GRIDFORMAT_END
 95
        8
302
GRIDFORMAT
  1
GRIDFORMAT_BEGIN
 90
        0
 91
        1
 62
     0
 92
       -2
340
14
 93
        0
 40
1.125
309
GRIDFORMAT_END
 95
       16
302
GRIDFORMAT
  1
GRIDFORMAT_BEGIN
 90
        0
 91
        1
 62
     0
 92
       -2
340
14
 93
        0
 40
1.125
309
GRIDFORMAT_END
 95
       32
302
GRIDFORMAT
  1
GRIDFORMAT_BEGIN
 90
        0
 91
        1
 62
     0
 92
       -2
340
14
 93
        0
 40
1.125
309
GRIDFORMAT_END
309
TABLEFORMAT_END
  1
CELLSTYLE_BEGIN
 90
        2
 91
        1
300
_HEADER
309
CELLSTYLE_END
300
CELLSTYLE
  1
TABLEFORMAT_BEGIN
 90
        5
170
     1
 91
        0
 92
        0
 62
   257
 93
        1
300
CONTENTFORMAT
  1
CONTENTFORMAT_BEGIN
 90
        0
 91
        0
 92
      512
 93
        0
300

 40
0.0
140
1.0
 94
        2
 62
     0
340
11
144
4.5
309
CONTENTFORMAT_END
171
     1
301
MARGIN
  1
CELLMARGIN_BEGIN
 40
1.5
 40
1.5
 40
1.5
 40
1.5
 40
0.18
 40
0.18
309
CELLMARGIN_END
 94
        6
 95
        1
302
GRIDFORMAT
  1
GRIDFORMAT_BEGIN
 90
        0
 91
        1
 62
     0
 92
       -2
340
14
 93
        0
 40
1.125
309
GRIDFORMAT_END
 95
        2
302
GRIDFORMAT
  1
GRIDFORMAT_BEGIN
 90
        0
 91
        1
 62
     0
 92
       -2
340
14
 93
        0
 40
1.125
309
GRIDFORMAT_END
 95
        4
302
GRIDFORMAT
  1
GRIDFORMAT_BEGIN
 90
        0
 91
        1
 62
     0
 92
       -2
340
14
 93
        0
 40
1.125
309
GRIDFORMAT_END
 95
        8
302
GRIDFORMAT
  1
GRIDFORMAT_BEGIN
 90
        0
 91
        1
 62
     0
 92
       -2
340
14
 93
        0
 40
1.125
309
GRIDFORMAT_END
 95
       16
302
GRIDFORMAT
  1
GRIDFORMAT_BEGIN
 90
        0
 91
        1
 62
     0
 92
       -2
340
14
 93
        0
 40
1.125
309
GRIDFORMAT_END
 95
       32
302
GRIDFORMAT
  1
GRIDFORMAT_BEGIN
 90
        0
 91
        1
 62
     0
 92
       -2
340
14
 93
        0
 40
1.125
309
GRIDFORMAT_END
309
TABLEFORMAT_END
  1
CELLSTYLE_BEGIN
 90
        3
 91
        2
300
_DATA
309
CELLSTYLE_END
  0
ENDSEC
  0
SECTION
  2
ACDSDATA
 70
     2
 71
     8
  0
ACDSSCHEMA
 90
        0
  1
AcDb_Thumbnail_Schema
  2
AcDbDs::ID
280
    10
 91
        8
  2
Thumbnail_Data
280
    15
 91
        0
101
ACDSRECORD
 95
        0
 90
        1
  2
AcDbDs::TreatedAsObjectData
280
     1
291
     1
101
ACDSRECORD
 95
        0
 90
        2
  2
AcDbDs::Legacy
280
     1
291
     1
101
ACDSRECORD
  1
AcDbDs::ID
 90
        3
  2
AcDs:Indexable
280
     1
291
     1
101
ACDSRECORD
  1
AcDbDs::ID
 90
        4
  2
AcDbDs::HandleAttribute
280
     7
282
     1
  0
ACDSSCHEMA
 90
        1
  1
AcDbDs::TreatedAsObjectDataSchema
  2
AcDbDs::TreatedAsObjectData
280
     1
 91
        0
  0
ACDSSCHEMA
 90
        2
  1
AcDbDs::LegacySchema
  2
AcDbDs::Legacy
280
     1
 91
        0
  0
ACDSSCHEMA
 90
        3
  1
AcDbDs::IndexedPropertySchema
  2
AcDs:Indexable
280
     1
 91
        0
  0
ACDSSCHEMA
 90
        4
  1
AcDbDs::HandleAttributeSchema
  2
AcDbDs::HandleAttribute
280
     7
 91
        1
284
     1
  0
ACDSRECORD
 90
        0
  2
AcDbDs::ID
280
    10
320
22
  2
Thumbnail_Data
280
    15
 94
     1324
310
89504E470D0A1A0A0000000D49484452000001000000006408030000005EBE1EAC00000300504C5445212830000000C8C8C80000000000000000000000000000000000000000000000000000330000660000990000CC0000FF0033000033330033660033990033CC0033FF0066000066330066660066990066CC0066FF0099
310
000099330099660099990099CC0099FF00CC0000CC3300CC6600CC9900CCCC00CCFF00FF0000FF3300FF6600FF9900FFCC00FFFF3300003300333300663300993300CC3300FF3333003333333333663333993333CC3333FF3366003366333366663366993366CC3366FF3399003399333399663399993399CC3399FF33CC00
310
33CC3333CC6633CC9933CCCC33CCFF33FF0033FF3333FF6633FF9933FFCC33FFFF6600006600336600666600996600CC6600FF6633006633336633666633996633CC6633FF6666006666336666666666996666CC6666FF6699006699336699666699996699CC6699FF66CC0066CC3366CC6666CC9966CCCC66CCFF66FF0066
310
FF3366FF6666FF9966FFCC66FFFF9900009900339900669900999900CC9900FF9933009933339933669933999933CC9933FF9966009966339966669966999966CC9966FF9999009999339999669999999999CC9999FF99CC0099CC3399CC6699CC9999CCCC99CCFF99FF0099FF3399FF6699FF9999FFCC99FFFFCC0000CC00
310
33CC0066CC0099CC00CCCC00FFCC3300CC3333CC3366CC3399CC33CCCC33FFCC6600CC6633CC6666CC6699CC66CCCC66FFCC9900CC9933CC9966CC9999CC99CCCC99FFCCCC00CCCC33CCCC66CCCC99CCCCCCCCCCFFCCFF00CCFF33CCFF66CCFF99CCFFCCCCFFFFFF0000FF0033FF0066FF0099FF00CCFF00FFFF3300FF3333
310
FF3366FF3399FF33CCFF33FFFF6600FF6633FF6666FF6699FF66CCFF66FFFF9900FF9933FF9966FF9999FF99CCFF99FFFFCC00FFCC33FFCC66FFCC99FFCCCCFFCCFFFFFF00FFFF33FFFF66FFFF99FFFFCCFFFFFF0000000D0D0D1A1A1A2828283535354343435050505D5D5D6B6B6B787878868686939393A1A1A1AEAEAEBB
310
BBBBC9C9C9D6D6D6E4E4E4F1F1F1FFFFFF000000000000000000000000000000000000000000000000000000000000B21171F6000001484944415478DAED9B3D1282301046F72896399647F36014145E617B61FC212421386A21DFBED7C008389337D92C49163300000000E8E23FE0D802FEE22F10F03F02565D7BAFEFA709
310
3901F9A9EF3FAC26C00D01A105B8C51650DA40403001D578800004841250BF13210001088824207D206018108080D002B4C60047000210105B406F3DA0B50D124B407BFA2816028E80E0023ACBE2088821607B6B2C8A806C4334CD79A1AA02586D8ECAA5C1559E4FABE951BE239C233C1B4CD52F56DD5106050204040CF322
310
4753C0EB8AAA803B53339FE15D84FB726519008C1A21041C5FC097157F0202AE0FDCBA9593D62E8F4480968076B35C3B04C6B11650DCE4DBCD151070EA3765A7365A21042EE3FB0244B3C0B91702E1D2A0B5867E2B8FA1045876F2384ABF097AA7A30B0E82B1E702D1BF190200000000000000000000000000000000008023
310
72038CCCEEFDC430030A0000000049454E44AE42608297769CE563034C0BA7DBEF79D3AEE657FBF3F2B70A305EE472BA199C36EE6AD1F6CBDB0AE2E800E338CAF9EF47E4A71B40EC03EC6903BC578294C245333F57C1B26CF6965D89A242325F09CA4A959BADCF9A03697C22D8AD04B363D2ACE6BB170373BD582C98EE0ECF
310
A57051E42E4CF26B448AAF9D723220A2011A4186C4220344FF4A4D42082184B8CC2F227D6A8EA0706C750000000049454E44AE426082
  0
ENDSEC
  0
EOF
